Stop Censorship
 
 

 
 1-9 a b c d e f g h i j k l m n o p q r s t u v w x y z
   Rammstein - Mutter Tab    

Rammstein
Mutter

e|---------------------------------------------|
B|---------------------------------------------|
G|---------------------------------------------|
D|-8/9*-11-12-16*--15--14--15--14--11*--12--10-|
A|-8/9--11-12-16---15--14--15--14--11---12--10-|
E|-6/7--9--10-14---13--12--13--12--9----10--9--|

e|---------------------------------------------|
B|---------------------------------------------|
G|---------------------------------------------|
D|-8/9*-11-12-16*--15--14--15--14--11*--12--10-|
A|-8/9--11-12-16---15--14--15--14--11---12--10-|
E|-6/7--9--10-14---13--12--13--12--9----10--9--|

e|---------------------------------------------|
B|---------------------------------------------|
G|---------------------------------------------|
D|-8/9*-11-12-16*--15--14--15--14--11*--12--10-|
A|-8/9--11-12-16---15--14--15--14--11---12--10-|
E|-6/7--9--10-14---13--12--13--12--9----10--9--|

e|---------------------------------------------|
B|---------------------------------------------|
G|---------------------------------------------|
D|-8/9*-11-12-16*--15--14--15--14--11*--12--10-|
A|-8/9--11-12-16---15--14--15--14--11---12--10-|
E|-6/7--9--10-14---13--12--13--12--9----10--9--|

/=slide
*=let ring

(by D.Amat & Edgardo S.)