Stop Censorship
 
 

 
 1-9 a b c d e f g h i j k l m n o p q r s t u v w x y z
   Rammstein - Mutter Tab    


Rammstein - "Mutter"

Tabbed By RyKnowe

6 String Standard Tuning (EADGBE)

Intro/Verse Riff (Guitar 1)

|----------------7---------------|----------7---------------7-----|
|------8-----8-------8-8-------10|--------7---7-----------7---7---|
|----9---9-----9---------9-------|------8-------8-------8-------8-|
|--9-------------------------9---|----9---------------9-----------|
|7-------------------------------|--9---------------9-------------|
|--------------------------------|7---------------7---------------|



Chorus Riff (Guitar 2)

|--------------------------------|--------------------------------|
|--------------------------------|--------------------------------|
|--------------------------------|--------------------------------|
|2-------2---2-4-5----/7-7-7-7-7-|0-------9-------9---9-9-9-9-9---|
|2-------2---2-4-5----/7-7-7-7-7-|0-------9-------9---9-9-9-9-9---|
|2-------2---2-4-5----/7-7-7-7-7-|0-------9-------9---9-9-9-9-9---|



Chorus Riff (Guitar 1)

|----------------------------------------------------------------|
|-------------------------------G--------------------------------|
|8//9-------------------11--12-/16----------------------16--14--|
|----------------------------------------------------------------|
|----------------------------------------------------------------|
|----------------------------------------------------------------|
| | | |


|----------------------------------------------------------------|
|----------------------------------------------------------------|
|16--14--11--------------------------------------12------11------|
|----------------------------------------------------------------|
|----------------------------------------------------------------|
|----------------------------------------------------------------|
| | | |


Bridge Riff (both guitars)

|--------------------------------|--------------------------------|
|--------------------------------|--------------------------------|
|5---5---5---5---5---5---5-5-5---|7---7---7---7---4---4---4-4-4---|
|5---5---5---5---5---5---5-5-5---|7---7---7---7---4---4---4-4-4---|
|3---3---3---3---3---3---3-3-3---|5---5---5---5---2---2---2-2-2---|
|--------------------------------|--------------------------------|


| Guitar 2 |
|--------------------------------|--------------------------------|
|--------------------------------|--------------------------------|
|5---5---5---5---5---5---5-5-5---|7---7---7---7---7---7-----------|
|5---5---5---5---5---5---5-5-5---|7---7---7---7---7---7---5-7-5-4-|
|3---3---3---3---3---3---3-3-3---|5---5---5---5---5---5---5-7-5-4-|
|--------------------------------|------------------------5-7-5-4-|


| Guitar 1 |
---------|
---------|
---------|
-5-7-5-4-|
-5-7-5-4-|
-3-5-3-2-|



Raised Chorus (Guitar 2)

|--------------------------------|--------------------------------|
|--------------------------------|--------------------------------|
|--------------------------------|--------6-------6---6-6-6-6-6---|
|4-------4---4-6-7-----/9-9-9-9-9|2-------6-------6---6-6-6-6-6---|
|4-------4---4-6-7-----/9-9-9-9-9|2-------4-------4---4-4-4-4-4---|
|4-------4---4-6-7-----/9-9-9-9-9|2-------------------------------|



Raised Chorus (Guitar 1)

|----------------------------------------------------------------|
|-------------------------------G--------------------------------|
|10/11------------------13--14-/18----------------------18--16--|
|----------------------------------------------------------------|
|----------------------------------------------------------------|
|----------------------------------------------------------------|
| | | |


|----------------------------------------------------------------|
|----------------------------------------------------------------|
|18--16--13--------------------------------------14------13------|
|----------------------------------------------------------------|
|----------------------------------------------------------------|
|----------------------------------------------------------------|
| | | |


Raised Bridge Riff (both guitars)

|--------------------------------|--------------------------------|
|--------------------------------|--------------------------------|
|7---7---7---7---7---7---7-7-7---|9---9---9---9---6---6---6-6-6---|
|7---7---7---7---7---7---7-7-7---|9---9---9---9---6---6---6-6-6---|
|5---5---5---5---5---5---5-5-5---|7---7---7---7---4---4---4-4-4---|
|--------------------------------|--------------------------------|


| Guitar 2 |
|--------------------------------|--------------------------------|
|--------------------------------|--------------------------------|
|7---7---7---7---7---7---7-7-7---|9---9---9---9---9---9-----------|
|7---7---7---7---7---7---7-7-7---|9---9---9---9---9---9---7-9-7-6-|
|5---5---5---5---5---5---5-5-5---|7---7---7---7---7---7---7-9-7-6-|
|--------------------------------|------------------------7-9-7-6-|


| Guitar 1 |
---------|
---------|
---------|
-7-9-7-6-|
-7-9-7-6-|
-5-7-5-4-|



End Fill (Guitar 1)

|-----------------------------------------------------------------|
|-----------------------------------------------------------------|
|10/11-----------------------------------------------------------|
|-----------------------------------------------------------------|
|-----------------------------------------------------------------|
|-----------------------------------------------------------------|
| | | |


End Fill (Guitar 2)

|--------------------------------|
|--------------------------------|
|--------------------------------|
|4-------------------------------|
|4-------------------------------|
|4-------------------------------|