Stop Censorship
 
 

 
 1-9 a b c d e f g h i j k l m n o p q r s t u v w x y z
   Relative Ash - Bounce Tab    

Author- Relative Ash
Title - Bounce
Tabbed by: Tweek87 (Jimmy lands)
Date: 4/28/04


Intro and Most of song:

Guitar 1 (mute/distort)
E|-------------------|
B|-------------------|
G|-------------------|
D|-------------------|
A|--5---5-----6-7-6--|
D|----6---6-5--------|
.......p.m..........

Guitar 2 (open/distort)
E|-------------------|
B|-------------------|
G|-------------------|
D|-------------------|
A|--5---5-----6-7-6--|
D|----6---6-5--------|


Chorus & Ending:

Guitar 1 (mute/distort)
E|-------------------|
B|-------------------|
G|-------------------|
D|-------------------|
A|--5---5-----6-7-6--|
D|----6---6-5--------|
.......p.m..........


Guitar 2 (open/distort)
E|-------------------------|
B|-------------------------|
G|-------------------------|
D|--6-6-6-5----6-6-6-5--0--|
A|--6-6-6-5----6-6-6-5--0--|
D|--6-6-6-5----6-6-6-5--0--|

Any Questions/Comments you can send them to me at sheer_nirvana@hotmail.com