Stop Censorship
 
 

 
 1-9 a b c d e f g h i j k l m n o p q r s t u v w x y z
   Relative Ash - Breathe tiny Hands Tab    

yeah it sound like deftones, but recently someone told me it was
relative ash.
"who the-?!" i said. but what the hey, i`ll give y`all the tabs.
i dont have a guitar with me at the moment so just transpose the whole
thing to whatever sounds the same as the recording.This is tabbed for
drop C but, hell i don`t know

intro/chorus
D-------------------------------------------------------
A-------------------------------------------------------
F-------------------------------------------------------
C-1--7-7-0--0-1--1-7-7-0--0--1--7-7-0--0-1--1-7-7-0-0-0-
G-1--7-7-0--0-1--1-7-7-0--0--1--7-7-0--0-1--1-7-7-0-0-0-
C-1--7-7-0--0-1--1-7-7-0--0--1--7-7-0--0-1--1-7-7-0-0-0-

verse
D--------------
A--------------
F--------------
C-0-1--1--1--1-
G-0-1--1--1--1-
C-0-1--1--1--1-

pre chorus chord (well... close)
D-1-
A-1-
F-1-
C---
G---
C---

verse 2 (after playing verse 4X)
D-------------------------------------------------------
A-------------------------------------------------------
F-------------------------------------------------------
C-0-1--1--1--1----0-----0------0-1--1--1--1----0--------
G-0-1--1--1--1------0----------0-1--1--1--1------0------
C-0-1--1--1--1--0-----6---3----0-1--1--1--1--0-----6----

bridge ("till i hear your voice...on the telephone")
D-------------------------
A-------------------------
F-------------------------
C-3----5-2----7----9-6----
G-3----5-2----7----9-6----
C-3----5-2----7----9-6----

i can`t remember what the hard out riff is like. so there.