Stop Censorship
 
 

 
 1-9 a b c d e f g h i j k l m n o p q r s t u v w x y z
   Relative Ash - Flavor Tab    

Song: “Flavor”
Artist: Relative Ash
Album: Our Time With You...
Transcribed By: Bryan Bramlett (bryanmb87@aol.com)

Tuning: Drop D (D,A,D,G,B,E)

INTRO: (guitar 1)
|-----------------------------|
|-----------------------------|
|-----------------------------|
|--3h5--5-5--5-5--5-5--5/6-3--|
|--3h5--5-5--5-5--5-5--5/6-3--|
|--3h5--5-5--5-5--5-5--5/6-3--|

VERSE:
|-----------------------------|
|--6/8--8-8--8-8--8-8-8/9--6--|
|--5/7--7-7--7-7--7-7-7/8--5--|
|--3/5--5-5--5-5--5-5-5/6--3--|
|--3/5--5-5--5-5--5-5-5/6--3--|
|--3/5--5-5--5-5--5-5-5/6--3--|

FILL 1:
|-------|
|-------|
|-------|
|--3/5--|
|--3/5--|
|--3/5--|

FILL 2:
|-------------------|
|-------------------|
|-------------------|
|--7-6-5-6-5-3-3/5--|
|--7-6-5-6-5-3-3/5--|
|--7-6-5-6-5-3-3/5--|

CHORUS:
|-----------------------------|
|-----------------------------|
|-----------------------------|
|--3/5--5-5--5-5--5--5-5/6-3--|
|--3/5--5-5--5-5--5--5-5/6-3--|
|--3/5--5-5--5-5--5--5-5/6-3--|

VERSE B:
|--------------------|
|--------------------|
|---------------<7>--|
|--3/5--3/5--<7>-----|
|--3/5--3/5----------|
|--3/5--3/5----------|

INTERLUDE:
|---------------------------------------------------|
|---------------------------------------------------|
|---------------7-7-7-7-7--7-7-8--------------------|
|--3/5-5-5-5--5-7-7-7-7-7--7-7-8--7--6--4--7-6-5-4--|
|--3/5-5-5-5--5-5-5-5-5-5--5-5-6--7--6--4--7-6-5-4--|
|--3/5-5-5-5--5-------------------7--6--4--7-6-5-4--|
PM . . . .

|--------------------------------------------------|
|--------------------------------------------------|
|---------------7-7-7-7-7--7-7--------8------------|
|--3/5-5-5-5--5-7-7-7-7-7--7-7-1--/6--8--7--7-6-5--|
|--3/5-5-5-5--5-5-5-5-5-5--5-5-1--/6--6--7--7-6-5--|
|--3/5-5-5-5--5----------------1--/6-----7--7-6-5--|
PM . . .