Stop Censorship
 
 

 
 1-9 a b c d e f g h i j k l m n o p q r s t u v w x y z
   Relative Ash - Sperm2 Tab    

Song: “Sperm”
Artist: Relative Ash
Album: Our Time With You...
Transcribed By: Bryan Bramlett (bryanmb87@aol.com)

Tuning: Drop D (D,A,D,G,B,E)

INTRO:
|--------------------------------------|
|--------------------------------------|
|-----7-----7-----8-----7-----7-----8--|
|--0-----0-----0-----0-----0-----0-----|
|--------------------------------------|
|--------------------------------------|

INTRO 2:
|--------------------------------------|
|--------------------------------------|
|-----7-----7-----8-----7-----7-----8--|
|--0-----0-----0-----0-----0-----0-----|
|--------------------------------------|
|--0-----0-----0-----0-----0-----0-----|

MAIN RIFF:
|--------------------------------------|
|--------------------------------------|
|-----7-----7-----8-----7-----7-----8--|
|--------------------------------------|
|--0--5--0--5--0--6--0--5--0--5--0--6--|
|--0-----0-----0-----0-----0-----0-----|

VERSE:
|-----------------------------------------|
|-----------------------------------------|
|-----------------------------------------|
|-----------------------------------------|
|-----------------------------------------|
|--0--12--8--7--5--7---0--12--8--7--5--7--|

CHORUS
|----------------------------------------------------|
|----------------------------------------------------|
|----------------------------------------------------|
|-0-12-8-7-5-7-5-3-5-3-2-3--0-12-8-7-5-7-5-3-10-9-8--|
|-0-12-8-7-5-7-5-3-5-3-2-3--0-12-8-7-5-7-5-3-10-9-8--|
|-0-12-8-7-5-7-5-3-5-3-2-3--0-12-8-7-5-7-5-3-10-9-8--|

BRIDGE:
|--------------------------------------------|
|--------------------------------------------|
|--------------------------------------------|
|-----12-----12-----13-----12-----12-----13--|
|--------------------------------------------|
|--0------0------0------0------0------0------|