Stop Censorship
 
 

 
 1-9 a b c d e f g h i j k l m n o p q r s t u v w x y z
   Rifftones - Game Show Host Tab    


Game Show Host by Rifftones(Haikal)
Intro(x2)
e----------------------------------------------------------------------
B----------------------------------------------------------------------
G------------------11-11-11-11-11-11-11-11-9-9-9-9-9-9-9-9---12-11-9---
D-9-9-9-9-9-9-9-9--11-11-11-11-11-11-11-11-9-9-9-9-9-9-9-9---12-11-9---
A-9-9-9-9-9-9-9-9--9--9--9--9--9--9--9--9--7-7-7-7-7-7-7-7---10-9--7---
E-7-7-7-7-7-7-7-7------------------------------------------------------

e------------------------------------------------------------
B------------------------------------------------------------
G-----------------9-9-9-9-9-9-9-9-7-7-7-7-7-7-7-7-7-7--6-7---
D-7-7-7-7-7-7-7-7-9-9-9-9-9-9-9-9-7-7-7-7-7-7-7-7-7-7--6-7---
A-7-7-7-7-7-7-7-7-7-7-7-7-7-7-7-7-5-5-5-5-5-5-5-5-5-5--4-5---
E-5-5-5-5-5-5-5-5--------------------------------------------

Verse(play the verse x4) The bass come 1st for x2 then the guitar comes in.
e-------------------------------------------------------------------------
B-------------------------------------------------------------------------
G-----------------11-11-11-11-11-11-11-11-9-9-9-9-9-9-9-9-9-9-9-9-9-9-9-9-
D-9-9-9-9-9-9-9-9-11-11-11-11-11-11-11-11-9-9-9-9-9-9-9-9-9-9-9-9-9-9-9-9-
A-9-9-9-9-9-9-9-9-9--9--9--9--9--9--9--9--7-7-7-7-7-7-7-7-7-7-7-7-7-7-7-7-
E-7-7-7-7-7-7-7-7---------------------------------------------------------
.......................................................................

e-----------------------------------------------------------------
B-----------------------------------------------------------------
G-----------------9-9-9-9-9-9-9-9-7-7-7-7-7-7-7-7-7-7-7-7-7-7-7-7-
D-7-7-7-7-7-7-7-7-9-9-9-9-9-9-9-9-7-7-7-7-7-7-7-7-7-7-7-7-7-7-7-7-
A-7-7-7-7-7-7-7-7-7-7-7-7-7-7-7-7-5-5-5-5-5-5-5-5-5-5-5-5-5-5-5-5-
E-5-5-5-5-5-5-5-5-------------------------------------------------
...............................................................

e-------------------------------------------------------------------------
B-------------------------------------------------------------------------
G-----------------11-11-11-11-11-11-11-11-9-9-9-9-9-9-9-9-9-9-9-9-9-9-9-9-
D-9-9-9-9-9-9-9-9-11-11-11-11-11-11-11-11-9-9-9-9-9-9-9-9-9-9-9-9-9-9-9-9-
A-9-9-9-9-9-9-9-9-9--9--9--9--9--9--9--9--7-7-7-7-7-7-7-7-7-7-7-7-7-7-7-7-
E-7-7-7-7-7-7-7-7---------------------------------------------------------
.......................................................................

e----------------------------------------------------------------------
B----------------------------------------------------------------------
G-----------------9-9-9-9-9-9-9-9-7-7-7-7-7-7-7-7-7-7-7-7-7-7-7-7--6-7-
D-7-7-7-7-7-7-7-7-9-9-9-9-9-9-9-9-7-7-7-7-7-7-7-7-7-7-7-7-7-7-7-7--6-7-
A-7-7-7-7-7-7-7-7-7-7-7-7-7-7-7-7-5-5-5-5-5-5-5-5-5-5-5-5-5-5-5-5--4-5-
E-5-5-5-5-5-5-5-5------------------------------------------------------
................................

Chorus(x4)
e------------------------------------------------------------------------------------------------------------
B------------------------------------------------------------------------------------------------------------
G-----------------11-11-11-11-11-11-11-11-12-12-12-12-12-12-12-12-9-9-9-9-9-9-9-9-7-7-7-7-7-7-7-7-7-7--6-7-6-
D-9-9-9-9-9-9-9-9-11-11-11-11-11-11-11-11-12-12-12-12-12-12-12-12-9-9-9-9-9-9-9-9-7-7-7-7-7-7-7-7-7-7--6-7-6-
A-9-9-9-9-9-9-9-9-9--9--9--9--9--9--9--9--10-10-10-10-10-10-10-10-7-7-7-7-7-7-7-7-5-5-5-5-5-5-5-5-5-5--4-5-4-
E-7-7-7-7-7-7-7-7--------------------------------------------------------------------------------------------

Solo(x4)
e------------------------------
B------------------------------
G--11-9-12-11-9h11--9-7-6-7-6--
D-9----------------7---------7-
A------------------------------
E------------------------------