Stop Censorship
 
 

 
 1-9 a b c d e f g h i j k l m n o p q r s t u v w x y z
   Rifftones - In My Shoes Tab    

In My Shoes

intro
------------------------------------------------
------------------------------------------------x2
------------------------------------------------(heavy dist)
------------------------------------------------(thick bass)
---7--5--3--2-0--7--5--3--2--2h3p2--------------
-00-00-00-00---00-00-00-00-00-------------------

chorus
------------------------
------------------------
-----999----------------
-777-999-555-333--------x4
-777-777-555-333--------
-555-----333-111--------

pre-verse
-------------------------
-------------------------
-------------------------
-7-5-3-222-7-5-3-222-----
-7-5-3-222-7-5-3-222-----
-5-3-1-000-5-3-1-000-----

---------------------------------
---------------------------------
---------------------------------
-7-5-3-222-7-5-3-22222222222-----
-7-5-3-222-7-5-3-22222222222-----
-5-3-1-000-5-3-1-00000000000-----
pm ...........

verse
---------------------------------------
---------------------------------------
---------------------------------------
-7777777-5555555-3333333-2222222-------x4
-7777777-5555555-3333333-2222222-------
-5555555-3333333-1111111-0000000-------

chorus
----------------------
----------------------
-----999--------------
-777-999-3-555--------x4
-777-777-3-555--------
-555-----1-333--------

intro
------------------------------------------------
------------------------------------------------
------------------------------------------------
------------------------------------------------
---7--5--3--2-0--7--5--3--2--2h3p2--------------
-00-00-00-00---00-00-00-00-00-------------------

------------------------
------------------------
-----999----------------
-777-999-555-333--------x2
-777-777-555-333--------
-555-----333-111--------

pre-verse
-------------------------
-------------------------
-------------------------
-7-5-3-222-7-5-3-222-----
-7-5-3-222-7-5-3-222-----
-5-3-1-000-5-3-1-000-----

---------------------------------
---------------------------------
---------------------------------
-7-5-3-222-7-5-3-22222222222-----
-7-5-3-222-7-5-3-22222222222-----
-5-3-1-000-5-3-1-00000000000-----
pm ...........

verse
---------------------------------------
---------------------------------------
---------------------------------------
-7777777-5555555-3333333-2222222-------x4
-7777777-5555555-3333333-2222222-------
-5555555-3333333-1111111-0000000-------

chorus
----------------------
----------------------
-----999--------------
-777-999-3-555--------x4
-777-777-3-555--------
-555-----1-333--------

interlude
-------------------------
-------------------------
-------------------------
-7-77--3-33-555-2-22-----
-7-77--3-33-555-2-22-----
-5-55--1-11-333-0-00-----

outro
-------------------------------------------------
-------------------------------------------------
-------------------------------------------------
-----------------------------------2-------------
---7--5--3--2-0--7--5--3--2--2h3p2-2-------------
-00-00-00-00---00-00-00-00-00------0-------------