Stop Censorship
 
 

 
 1-9 a b c d e f g h i j k l m n o p q r s t u v w x y z
   Rifftones - Intro Tab    

Intro by RiffTones(Umar)
play like playing a metal riff
--------------------------------------------
--------------------------------------------
--------------------------------------------
---2-22222-3--222222-3--222222-3-7-5-3-2----x2
---2-22222-3--222222-3--222222-3-7-5-3-2----
---0-00000-1--000000-1--000000-1-5-3-1-0----
pm ..... ...... ......

--------------------------------------
--------------------------------------
--------------------------------------
---2-222--3-333--7-777--5-555---------x2
---2-222--3-333--7-777--5-555---------
---0-000--1-111--5-555--3-333---------
pm ... ... ... ...

----------------------------------
----------------------------------
----------------------------------
---2222--3333--7777--5555---------x3
---2222--3333--7777--5555---------
---0000--1111--5555--3333---------

-----------------
-----------------
---r-------------
--2i-----2-------
--2n-----2-------
--0g-----0-------