Stop Censorship
 
 

 
 1-9 a b c d e f g h i j k l m n o p q r s t u v w x y z
   Rifftones - Newbie Tab    

Newbie by Hadi (Last Years Frontiers) Cover song
Tabbed by Umar (RiffTones)

(Guitar)
Intro/verse
-----------------------------
-----------------------------
-7-7-7-----------------------
-7-7-7-7-7-7-9-9-9-5-7-7-7---x5
-5-5-5-7-7-7-9-9-9-5-7-7-7---
-------5-5-5-7-7-7-3-5-5-5---

chorus
--------------------------
--------------------------
--------------------------
-33333-55555-33333-55555--x2
-33333-55555-33333-55555--
-11111-33333-11111-33333--

verse 2
----------------------------------------
----------------------------------------
-7-7-7777-------------------------------
-7-7-7777-7-7-7777-9-9-9999-5555-7777---x5
-5-5-5555-7-7-7777-9-9-9999-5555-7777---
----------5-5-5555-7-7-7777-3333-5555---

chorus
--------------------------
--------------------------
--------------------------
-33333-55555-33333-55555--x2
-33333-55555-33333-55555--
-11111-33333-11111-33333--

outro
-----------------------------------------
-----------------------------------------
-7-7-7777--------------------------------
-7-7-7777-7-7-7777-9-9-9999-5555-7777-5--
-5-5-5555-7-7-7777-9-9-9999-5555-7777-5--
----------5-5-5555-7-7-7777-3333-5555-3--

(Bass)

---------------------------------------
-----7575------------------------------
-5-5----------7575----9797-------------
----------5-5------7-7-----33-5-5------

----------------------------
----------------------------
--------------33333--11111--
-11111--33333---------------