Stop Censorship
 
 

 
 1-9 a b c d e f g h i j k l m n o p q r s t u v w x y z
   Rifftones - Rebel Now Tab    

Rifftones Rebel now(Umar)

This song is suppose to be punkrock like happy man
there`s a lot of palm mutes took me bout 4 hrs to compose and tab it out

intro
----------------------
----------------------
----------------------x2
----------------------actually bass play but
----------------------sounds nicer if both play
-000-333-777-5656-----
pm.................

-------------------------
-------------------------
-------------------------Drums come in
-2222-5555-9999-7-8-7-8--x2
-2222-5555-9999-7-8-7-8--
-0000-3333-7777-5-6-5-6--
pm.....................

per-verse
-----------------------------------------
-----------------------------------------
-----------------------------------------normal punkrock dist
-222222222-5555555555-99999999999-88-77--x2
-222222222-5555555555-99999999999-88-77--
-000000000-3333333333-77777777777-66-55--

verse
--------------------------------------------------------------
--------------------------------------------------------------
--------------------------------------------------------------overdrive
-222222-999999-555555-777777---222222-999999-555555-888888----x2
-222222-999999-555555-777777---222222-999999-555555-888888----
-000000-777777-333333-555555---000000-777777-333333-666666----

chorus
-------------------------
-------------------------
-------------------------
-2222-5555-9999-7-8-7-8--x4
-2222-5555-9999-7-8-7-8--
-0000-3333-7777-5-6-5-6--

intro
----------------------
----------------------
----------------------x2
----------------------do as the same in beginning
----------------------
-000-333-777-5656-----
pm.................

-------------------------
-------------------------
-------------------------
-2222-5555-9999-7-8-7-8--x2
-2222-5555-9999-7-8-7-8--
-0000-3333-7777-5-6-5-6--
pm.....................

per-verse
-----------------------------------------
-----------------------------------------
-----------------------------------------
-222222222-5555555555-99999999999-88-77--x2
-222222222-5555555555-99999999999-88-77--
-000000000-3333333333-77777777777-66-55--

verse
--------------------------------------------------------------
--------------------------------------------------------------dirty
--------------------------------------------------------------overdrive
-222222-999999-555555-777777---222222-999999-555555-888888----x2
-222222-999999-555555-777777---222222-999999-555555-888888----
-000000-777777-333333-555555---000000-777777-333333-666666----

chorus
-------------------------
-------------------------
-------------------------heavy dist
-2222-5555-9999-7-8-7-8--x4
-2222-5555-9999-7-8-7-8--
-0000-3333-7777-5-6-5-6--

interlude
----------------------------------
----------------------------------
----------------------------------strum and break...repeat..
-22-55-99-77---22-55-99-7/8-7/8---x2
-22-55-99-77---22-55-99-7/8-7/8---
-00-33-77-55---00-33-77-5/6-5/6---

-------------------------------------------
-------------------------------------------
-1-1-1111--4-4-4444--8-8-8888--66667777----Aqustic strumming
-2-2-2222--5-5-5555--9-9-9999--77778888----x2
-2-2-2222--5-5-5555--9-9-9999--77778888----
-0-0-0000--3-3-3333--7-7-7777--55556666----

solo (to be played during interlude)
---------------------------------------------------------
---------------------------------------------------------
-9-9-9-12-11-12------------10-10-9-----------------------make sure theres reverb
---------------12-10-9-10-9-------10-9-9-9-11-12-11-7----
---------------------------------------------------------
---------------------------------------------------------

post interlude (going to final chorus)
--------------------------------------------------------------
--------------------------------------------------------------
--------------------------------------------------------------use overdrive
-222222-999999-555555-777777---222222-999999-555555-888888----x2
-222222-999999-555555-777777---222222-999999-555555-888888----
-000000-777777-333333-555555---000000-777777-333333-666666----

chorus (always heavy distortion)
-------------------------
-------------------------
-------------------------
-2222-5555-9999-7-8-7-8--x4
-2222-5555-9999-7-8-7-8--
-0000-3333-7777-5-6-5-6--

outro
-----------------------------------------
-----------------------------------------
-----------------------------------------heavy distortion
-22222222-999999999-55555555-777777777---
-22222222-999999999-55555555-777777777---
-00000000-777777777-33333333-555555555---

--------------------------
--------------------------
--------------------------let the last note ring
-2222222-999999999-5-777--
-2222222-999999999-5-777--
-0000000-777777777-3-555--