Stop Censorship
 
 

 
 1-9 a b c d e f g h i j k l m n o p q r s t u v w x y z
   Samael - Black Trip Tab    



C#--||--------------------------------------------------|-------------
G#--||--------------------------------------------------|-------------
E---||*-------------------------------------------------|-------------
B---||*-------------------------------------------------|-------------
F#--||---5h7--------------7--------------------3--2--0--|-------------
C#--||---0-0--0--0--0--0--0--0--0--0--0--1--1-----------|-------------

C#-----------------------------------------------||-------------------
G#-----------------------------------------------||-------------------
E-----------------------------------------------*||-------------------
B-----------------------------------------------*||-------------------
F#--5h7--------------7--------------------3--2---||-------------------
C#--0----0--0--0--0--0--0--0--0--0--1--1---------||-------------------

C#--||-------------------------------------------|--------------------
G#--||-------------------------------------------|--------------------
E---||*------------------------------------------|--------------------
B---||*--7h9--9--9--9--9/11--11--11--119--9--9--|--------------------
F#--||---5-7--7--7--7--7-9---9---9---9--7--7--7--|--------------------
C#--||-------------------------------------------|--------------------

C#-----------------------------||-------------------------------------
G#-----------------------------||-------------------------------------
E-----------------------------*||-------------------------------------
B---7h9--9--9--9--------4-----*||-------------------------------------
F#--5-7--7--7--7--------2--5---||-------------------------------------
C#----------------0--0-----3---||-------------------------------------

C#------------------------------------------------|-------------------
G#------------------------------------------------|-------------------
E-------------------------------------------------|-------------------
B---7h9--------9--9--9--9h11--11--11--119--9--9--|-------------------
F#--5-7--x--x--7--7--7--7-9---9---9---9--7--7--7--|-------------------
C#------------------------------------------------|-------------------

C#-------------------------------------|-------|----------------------
G#-------------------------------------|-------|----------------------
E--------------------------------------|-------|----------------------
B---7h9--------9--9--9--------------5--|-------|----------------------
F#--5-7--------7--7--7-----2--------3--|--5/---|----------------------
C#-------x--x-----------0--0--0--0-----|-------|----------------------
PS
C#------------------------------|-------------------------------------
G#------------------------------|-------------------------------------
E-------------------------------|-------------------------------------
B-------------------------------|-------------------------------------
F#--------7--12--12--10--9--10--|--12--12--10--9--10--x---5--4--5----
C#--x--x--0--0---0---0---0--8---|--0---0---0---0--8--------3--2--3----
A
C#--||----------------------------------------------|-----------------
G#--||----------------------------------------------|-----------------
E---||*---------------------------------------------|-----------------
B---||*---------------------------------------------|-----------------
F#--||------7--7--75--5--5--53--3--3--2--3--2--0--|-----------------
C#--||---0------------------------------------------|-----------------
3x B
C#-------------------------------------||--||--------------------|----
G#-------------------------------------||--||--------------------|----
E-------------------------------------*||--||*-------------------|----
B-------------------------------------*||--||*-------------------|----
F#-----7--7--75--5--5--53-----4--5---||--||---5h7--7--7--2--3--|----
C#--0------------------------3--2--3---||--||---0----0--0--0--0--|----

C#-------------------|-------------------|---------------------||-----
G#-------------------|-------------------|---------------------||-----
E--------------------|-------------------|--------------------*||-----
B-----------------4--|-------------------|--------------------*||-----
F#--5--5--5--5p3--2--|--5h7--7--7--2--3--|--5--5--5--------3---||-----
C#--0--0--0--0-------|--0----0--0--0--0--|--0--0--0--x--x--0---||-----
C NH
C#--||---------------------|---------------|--------------------------
G#--||---------------------|---------------|--------------------------
E---||---------------------|---------------|--------------------------
B---||---------------------|--10-----------|--------------------------
F#--||--5h7--7--7--3p2--3--|--8------------|--------------------------
C#--||--0----0--0--0-0--0--|------x--2--3--|--------------------------
NH
C#------------------------|------------------|------------------------
G#------------------------|------------------|------------------------
E-------------------------|------------------|------------------------
B-------------------------|--10--------------|------------------------
F#--5h7--7--7--7--3p2--3--|--8---------------|------------------------
C#--0----0--0--0--0-0--0--|------x--x--2--3--|------------------------

C#------------------------|-----------------------|-------------------
G#------------------------|-----------------------|-------------------
E-------------------------|-----------------------|-------------------
B-------------------------|-----------------------|-------------------
F#--5h7--7--7--7--3p2--3--|--5--5--5--5--5--3--2--|-------------------
C#--0----0--0--0--0----0--|--0--0--0--0--0--0--0--|-------------------
End C
C#-------------------------|--------------------------||--------------
G#-------------------------|--------------------------||--------------
E--------------------------|--------------------------||--------------
B--------------------------|--------------------------||--------------
F#--5h7--7--7--2--2--3--3--|--5--5--5--5--5--5--5--5--||--------------
C#--0----0--0--0--0--0--0--|--0--0--0--0--0--0--0--0--||--------------
A 4x B C
C#--||----------||--||----------||--------|---------------------------
G#--||----------||--||----------||--------|---------------------------
E---||*--------*||--||*--------*||--------|---------------------------
B---||*--------*||--||*--------*||--------|---------------------------
F#--||----------||--||----------||--------|--2------------------------
C#--||----------||--||----------||--------|--0--3/--------------------

C#--||------------------------|---------------------------------------
G#--||------------------------|---------------------------------------
E---||*-----------------------|---------------------------------------
B---||*-----------------------|---------------------------------------
F#--||------------------------|---------------------------------------
C#--||---3--3--3--3--1--1--1--|---------------------------------------

C#-----------------------------------|--------------------------------
G#-----------------------------------|--------------------------------
E------------------------------------|--------------------------------
B------------------------------------|--------------------------------
F#-----------------------------------|--------------------------------
C#--6--6--6--6--1--5--5--5--5--5--1--|--------------------------------

C#--------------------------------------------------------------------
G#--------------------------------------------------------------------
E---------------------------------------------------------------------
B---------------------------------------------------------------------
F#-----------------------------------------4--4--4--4--1--------------
C#--2--2--2--2--1--1--1--5--5--5--5--5--1-----------------------------

C#--||---------------------------|---------||--||------|--------------
G#--||---------------------------|---------||--||------|--------------
E---||*--------------------------|--------*||--||*-----|--------------
B---||*--------------------------|--------*||--||*-----|--------------
F#--||---5--5--5--5--5--5--5--5--|--8--7---||--||---4--|--------------
C#--||---3--3--3--3--3--3--3--3--|--6--5---||--||---2--|--------------
1st Time 2nd Time A 4x
C#---------||-----------||----------||-----||-------------------------
G#---------||-----------||----------||-----||-------------------------
E---------*||-----------||*--------*||-----||-------------------------
B------6--*||-----------||*--------*||-----||-------------------------
F#--7--4---||--7--5--4--||----------||--2--||-------------------------
C#--5------||--5--3--2--||----------||--0--||-------------------------