Stop Censorship
 
 

 
 1-9 a b c d e f g h i j k l m n o p q r s t u v w x y z
   Screeching Weasel - A New Tommorow Tab    

Screeching Weasel - A New Tommorow

Intro X2
e-----------------------------------------------------|
B----some palm muted-----------some palm muted--------|
G--/-------------------5-5--/-------------------7-7-|
D--2-2--2-2--2-2-2-2-2--5-5--5-5--5-5--5-5-5-5-5--7-7-|
A--2-2--2-2--2-2-2-2-2--3-3--5-5--5-5--5-5-5-5-5--5-5-|
E--0-0--0-0--0-0-0-0-0-------3-3--3-3--3-3-3-3-3------|

Verse drums,bass, and commentator comes in
e-----------------------------------------------------|
B----some palm muted-----------some palm muted--------|
G--/-------------------5-5--/-------------------7-7-|
D--2-2--2-2--2-2-2-2-2--5-5--5-5--5-5--5-5-5-5-5--7-7-|
A--2-2--2-2--2-2-2-2-2--3-3--5-5--5-5--5-5-5-5-5--5-5-|
E--0-0--0-0--0-0-0-0-0-------3-3--3-3--3-3-3-3-3------|

Chorus *= x12
e-------------|
B--------*--*-|
G--*--*--7--7-|
D--2--5--7--5-|
A--2--5--5--3-|
E--0--3-------|

Verse
e-----------------------------------------------------|
B----some palm muted-----------some palm muted--------|
G--/-------------------5-5--/-------------------7-7-|
D--2-2--2-2--2-2-2-2-2--5-5--5-5--5-5--5-5-5-5-5--7-7-|
A--2-2--2-2--2-2-2-2-2--3-3--5-5--5-5--5-5-5-5-5--5-5-|
E--0-0--0-0--0-0-0-0-0-------3-3--3-3--3-3-3-3-3------|

Chorus *= x12
e-------------|
B--------*--*-|
G--*--*--7--7-|
D--2--5--7--5-|
A--2--5--5--3-|
E--0--3-------|

Solo X3 ()= first time only {}=dont play last time
e----0-3-5-3-2-2-3----0-3-5-3-2-2-3-{0}->
B-(4)--------------4-------------------->
G--------------------------------------->
D--------------------------------------->
A--------------------------------------->
E--------------------------------------->

Solo (cont.) Play to fade
e>--7-7-7-7-7-7-7-7-7-7-5------7-9-7---5-5-|
B>------------------------8--8-------8-----|
G>-----------------------------------------|
D>-----------------------------------------|
A>-----------------------------------------|
E>-----------------------------------------|

Tabbed by Brettdude 7. 30. 2003.