Stop Censorship
 
 

 
 1-9 a b c d e f g h i j k l m n o p q r s t u v w x y z
   Screeching Weasel - First Day Of Autumn Tab    

"First Day Of Autumn" - Screeching Weasel
Tabbed by Sean DeLonge

This is definitely one of my favorite
instrumentals, the rythym is great.


Intro and Main Riff
e-----------------
B-----------------
G-----------------
D---7-5-4---------
A-5---------4-7-4-
E---------5-------

Part 2
e-------------------
B-------------------
G-------------------
D---7-5-4---7-5-4---
A-5---------------5-
E---------5---------

Part 3
e------------------------------------------
B------------------------------------------
G------------------------------------------
D-7-5-4----7-5-4----7-5-4----7-5-4---7-5-4-
A-------5--------5--------5----------------
E----------------------------------5-------

Part 4
e------------------------------------------------
B------------------------------------------------
G---4--------4--------------4--------4---4---4---
D-7---7----7---7-5-4------7---7----7---7---7---7-
A-------5------------7-5--------5----------------
E------------------------------------------------

Ending Riff
e-------------------------------------------------------------
B-------------------------------------------------------------
G---4--------4--------------4--------4----4-------------------
D-7---7----7---7-5-4------7---7----7---7----7--7-5-4----------
A-------5------------7-5-------5--------------------7-5-4---4
E----------------------------------------------------------7--