Stop Censorship
 
 

 
 1-9 a b c d e f g h i j k l m n o p q r s t u v w x y z
   Screeching Weasel - Good Morning Tab    

Screeching Weasel - Good Morning
Album: Kill the Musicians
Track: 4

By: Tank (punktank45@yahoo.com)

Im positive this is %100 correct!

Intro/Verse

e|------------------
B|------------------
G|---9-----13-------
D|---9--9--13--13---
A|---7--9--11--13---
E|------7------11---

Chorus/Pre Outro

"It`s a good morning!..im up with a smile on my face"
e|------------------
B|------------------
G|---9---------13---
D|---9--9--11--13---
A|---7--9--11--11---
E|------7--9--------

Outro

"My face!!! lalalalalala"
e|------------------
B|------------------
G|----------9-------
D|---11--7--9--9----
A|---11--7--7--9----
E|---9---5-----7----

END