Stop Censorship
 
 

 
 1-9 a b c d e f g h i j k l m n o p q r s t u v w x y z
   Screeching Weasel - My Brain Hurts Tab    

Screeching Weasel
Song: My Brain Hurts
Album: My Brain Hurts

tabbed by dirtbikejoe47 (baugh57@hotmail.com)
I`m 100% positive that this tab is fully correct.

Intro: Guitar 1
A E D
e|---------------------------------------------------------------------|
B|---------------------------------------------------------------------|
G|----------------------------------------------------7-7-7-7-7-7-7-7--|Repeat 4x
D|--7-7-7-7-7-7-7-7-7-7-7-7-7-7-7-7--2-2-2-2-2-2-2-2--7-7-7-7-7-7-7-7--|
A|--7-7-7-7-7-7-7-7-7-7-7-7-7-7-7-7--2-2-2-2-2-2-2-2--5-5-5-5-5-5-5-5--|
E|--5-5-5-5-5-5-5-5-5-5-5-5-5-5-5-5--0-0-0-0-0-0-0-0-------------------|

Intro: Guitar 2
e|-----------------------------------------|
B|-----------------------------------------|
G|------6-7-6------------6-7-6-------------|Repeat 4x
D|--7---------9--7-9-----------9--7-9---7--|
A|-------------------7---------------------|
E|-----------------------------------------|



Verse: ("Time gets wasted every day...")
A (palm mute) D (open)
e|--------------------------------------------------------------------|
B|--------------------------------------------------------------------|
G|---------------------------------------------------7-7-7-7-7-7-7-7--|Repeat 2x
D|--7-7-7-7-7-7-7-7-7-7-7-7-7-7-7-7-7-7-7-7-7-7-7-7--7-7-7-7-7-7-7-7--|
A|--7-7-7-7-7-7-7-7-7-7-7-7-7-7-7-7-7-7-7-7-7-7-7-7--5-5-5-5-5-5-5-5--|
E|--5-5-5-5-5-5-5-5-5-5-5-5-5-5-5-5-5-5-5-5-5-5-5-5-------------------|
("My brain is melting like a chocolate ice cream bar")
F# (open as well) E D C#/D
e|--------------------------------------------------------------------------------|
B|--------------------------------------------------------------------------------|
G|--11-11-11-11-11-11-11-11--9-9-9-9-9-9-9-9--7-7-7-7-7-7-7-7--6/7-7-7-7-7-7-7-7--|
D|--11-11-11-11-11-11-11-11--9-9-9-9-9-9-9-9--7-7-7-7-7-7-7-7--6/7-7-7-7-7-7-7-7--|
A|--9--9--9--9--9--9--9--9---7-7-7-7-7-7-7-7--5-5-5-5-5-5-5-5--4/5-5-5-5-5-5-5-5--|
E|--------------------------------------------------------------------------------|



Chorus: ("If I wanna do something right...")
A D
e|--------------------------------------------------------------------|
B|--------------------------------------------------------------------|
G|-----------------------------------7-7-7-7-7-7-7-7-7-7-7-7-7-7-7-7--|Repeat 2x
D|--7-7-7-7-7-7-7-7-7-7-7-7-7-7-7-7--7-7-7-7-7-7-7-7-7-7-7-7-7-7-7-7--|
A|--7-7-7-7-7-7-7-7-7-7-7-7-7-7-7-7--5-5-5-5-5-5-5-5-5-5-5-5-5-5-5-5--|
E|--5-5-5-5-5-5-5-5-5-5-5-5-5-5-5-5-----------------------------------|

A E
e|--------------------------------------------------------------------|
B|--------------------------------------------------------------------|
G|-----------------------------------9-9-9-9-9-9-9-9-9-9-9-9-9-9-9-9--|
D|--7-7-7-7-7-7-7-7-7-7-7-7-7-7-7-7--9-9-9-9-9-9-9-9-9-9-9-9-9-9-9-9--|
A|--7-7-7-7-7-7-7-7-7-7-7-7-7-7-7-7--7-7-7-7-7-7-7-7-7-7-7-7-7-7-7-7--|
E|--5-5-5-5-5-5-5-5-5-5-5-5-5-5-5-5-----------------------------------|



Bridge Part 1: Guitar 1
A F# D
e|--------------------------------------------------------------------|
B|--------------------------------------------------------------------|
G|--------------------------------------------------------------------|Repeat 2x
D|--7-7-7-7-7-7-7-7-7-7-7-7-7-7-7-7--4-4-4-4-4-4-4-4-4-4-4-4-4-4-4-4--|
A|--7-7-7-7-7-7-7-7-7-7-7-7-7-7-7-7--4-4-4-4-4-4-4-4-4-4-4-4-4-4-4-4--|
E|--5-5-5-5-5-5-5-5-5-5-5-5-5-5-5-5--2-2-2-2-2-2-2-2-2-2-2-2-2-2-2-2--|

D E
e|--------------------------------------------------------------------|
B|--------------------------------------------------------------------|
G|--7-7-7-7-7-7-7-7-7-7-7-7-7-7-7-7--9-9-9-9-9-9-9-9-9-9-9-9-9-9-9-9--|
D|--7-7-7-7-7-7-7-7-7-7-7-7-7-7-7-7--9-9-9-9-9-9-9-9-9-9-9-9-9-9-9-9--|
A|--5-5-5-5-5-5-5-5-5-5-5-5-5-5-5-5--7-7-7-7-7-7-7-7-7-7-7-7-7-7-7-7--|
E|--------------------------------------------------------------------|

Bridge Part 1: Guitar 2
e|--9------------9-------------12------------12--|
B|-----10-----10----10-----10------10-----10-----|
G|---------9------------9--------------11--------|Repeat 2x
D|-----------------------------------------------|
A|-----------------------------------------------|
E|-----------------------------------------------|

e|--10-------------10--------------9------------9-------------|
B|------10------10-----10------10-----10-----10----10-----10--|
G|----------11-------------11-------------9------------9------|
D|------------------------------------------------------------|
A|------------------------------------------------------------|
E|------------------------------------------------------------|



Bridge Part 2: Guitar 1
A E D
e|---------------------------------------------------------------------|
B|---------------------------------------------------------------------|
G|-------------------9-9-9-9-9-9-9-9--7-7-7-7-7-7-7-7-7-7-7-7-7-7-7-7--|Repeat 4x
D|--7-7-7-7-7-7-7-7--9-9-9-9-9-9-9-9--7-7-7-7-7-7-7-7-7-7-7-7-7-7-7-7--|
A|--7-7-7-7-7-7-7-7--7-7-7-7-7-7-7-7--5-5-5-5-5-5-5-5-5-5-5-5-5-5-5-5--|
E|--5-5-5-5-5-5-5-5----------------------------------------------------|

Bridge Part 2: Guitar 2
e|--9-------------9-------9-------10--------------10--------10-----|
B|-----10------10---10------10--------10-------10----10--------10--|
G|---------9-----------9------------------11------------11---------|
D|-----------------------------------------------------------------|
A|-----------------------------------------------------------------|
E|-----------------------------------------------------------------|




Outro: Guitar 2
(After 2 measures, Guitar 3 plays the octave of this)
e|----------------------------------------|
B|----------------------------------------|
G|------9--11---7--9-7---6--7-6-----------|Repeat 4x
D|--7-----------------------------9--6-9--|
A|----------------------------------------|
E|----------------------------------------|