Stop Censorship
 
 

 
 1-9 a b c d e f g h i j k l m n o p q r s t u v w x y z
   Screeching Weasel - My Right Tab    

band : Screeching Weasel
song : My right


first part of the intro
guitar 1
|--5-7-7--77-5777-5777-5777--
|----------------------------
|----------------------------
|----------------------------
|----------------------------
|----------------------------x6

guitar 1
|-57-7-7-7777779-9-9-99999910-10-10-10-10-10-10-10-10-9-7-10-9-7-5-7-
|--------------------------------------------------------------------
|--------------------------------------------------------------------
|--------------------------------------------------------------------
|--------------------------------------------------------------------
|--------------------------------------------------------------------

guitar 1
|-57-7-7-7777779-9-9-99999910-10-10-10-10-10-10-10-10-9-7-10-9-7-10-9-7-10-9-7-7-5-7
|-----------------------------------------------------------------------------------
|-----------------------------------------------------------------------------------
|-----------------------------------------------------------------------------------
|-----------------------------------------------------------------------------------
|-----------------------------------------------------------------------------------

guiatar 2
|------------
|------------
|-4----------
|-4--7--2--5-
|-2--7--2--5-
|----5--0--3-

2nd part of intro
guitar 1, 2
|------------
|------------
|-4----------
|-4--4--5--2-
|-2--4--5--2-
|----2--3--0-

verses
|------------
|------------
|-4----------
|-4--4--5--2-
|-2--4--5--2-
|----2--3--0-

chorus
|------------
|------------
|-4----------
|-4--7--2--5-
|-2--7--2--5-
|----5--0--3-