Stop Censorship
 
 

 
 1-9 a b c d e f g h i j k l m n o p q r s t u v w x y z
   Screeching Weasel - Totally Tab    

> = slide


Intro
--------------------------------------------------------------
--------------------------------------------------------------
--------------------------------4>5-5-5-5-5-5-5-5-5-5-5-5-5-5- 2X
--7>8-8-8-8-8-8--2>3-3-3-3-3-3--4>5-5-5-5-5-5-5-5-5-5-5-5-5-5-
--7>8-8-8-8-8-8--2>3-3-3-3-3-3--2>3-3-3-3-3-3-3-3 3-3-3-3-3-3-
--5>6-6-6-6-6-6--0>1-1-1-1-1-1--------------------------------


Totally Cool...that your hair is blue etc.
--------------------------------------------------
--------------------------------------------------
--4------------------4X, last 2 palm muted--------
--4---2---6---4-----------------------------------
--2---2---6---4-----------------------------------
------0---4---2-----------------------------------

Intro Again

Verse Again

I totally, I totally, love everything about you
-----------------------------------
-----------------------------------
---4-------------------------------
---4---4---2-----------------------
---2---4---2-----------------------
-------2---0-----------------------

The solo is played on keyboard I think, but on guitar it`s
------------------------------------------------------------
--7-5-----7-5-----7-5---5-----------------------------------
------8-4-----8-4-----8---8-4-------------------------------
------------------------------------------------------------
------------------------------------------------------------
------------------------------------------------------------

End on C

***** `&` *********************************************
** # **
** # Any corrections, questions, comments, **
** _#_ etc. welcome! **
** ( # ) **
** / O Kyle Barton (guitarkyle@yahoo.com) **
** ( === ) http:/www.kylebarton.com **
**** `---` ********************************************