Stop Censorship
 
 

 
 1-9 a b c d e f g h i j k l m n o p q r s t u v w x y z
   Sean Watkins - Let It Fall Tab    

Let It Fall - Sean Watkins

Intro

e------0---------0----------0---------0-------|
b-----4----4----4-----4----4----4----9--------|
g----4----4----4-----4----4----4----9--------*|
d---2----2----2-----2----2----2----7---------*|
a--4---------2----------0---------7-----------|
e---------------------------------------------|

E-2/4--2p0---------------------------------------0---------|
B------------2/4-5-4-2---------------------------2---------|
G---------2------------4-1-2-1-2-1-2-1-----------2---------|
D---------------------------------------2/4---2--2---------|
A-------------------------------------------4----0---------|
E----------------------------------------------------------|



E A C#m
Hey look I`m not way down, as I walk through
A B C#m A
The growing wheatfields journey on the ground
E A C#m
As All the ravens fly away, they leave nothing
A B C#m A
but the sun and endless blue day



A
I`ve always new I felt this way
B
but could`nt find the time to say
C#m A
to myself I`ve got to let it go
A B
All the joy and all the pain with the diamond and the ring
C#m G#m A
the honest truth is all I want to know
A B C#m A
Leeeeeeeeeet it Falllllllll
A B C#m G#m A
Leeeeeeeeeet Gooooo



E A
My ?????? these walls are falling down
B C#m A B C#m A
but i know that I don`t wear and undeserved crown
E A
I know it seemed to fit me well
B C#m A B C#m A
underneath it i would certainly fall down



A
Last Summer we left things unsaid
B
that should be now and long time dead
C#m A
And now it seems that time has put it well,
A
words can chase away a friend.
B
But to lie they`ll bring an end,
C#m G#m A
and throw it down the darkest deepest well.
A B C#m A
Leeeeeeeet it fallllllll,
A B C#m G#m A
leeeeett goooooooo


Repeat