Stop Censorship
 
 

 
 1-9 a b c d e f g h i j k l m n o p q r s t u v w x y z
   Senses Fail - 187 Tab    

Mxtabs.net – tabbed by Max. maxtheaxe712. First tab. Hopefully it will help you out. GREAT SONG MIGHT I ADD. Ok have fun. Questions, comments, whatever, jimmyeatworld712@hotmail.com

Intro – Guitar one – Dropped D
e|---------0--------------0----------------0-------------0--------|
B|------3-----3-3------3----3-----------3----3--3-----3----3--3---|
G|--2-2--2-----2---4-4--4-----2h4---0-0---0---0---0-0---0----0--0-|
D|----------------------------------------------------------------| x 14
A|----------------------------------------------------------------|
D|----------------------------------------------------------------|

Intro – guitar two - come in on “the pain”

e|-12-12-12-12-10-10-10-9h10-9-9-9-9-9-9-9-9----------------------|
B|----------------------------------------------------------------|
G|----------------------------------------------------------------|
D|----------------------------------------------------------------| x 8
A|----------------------------------------------------------------|
D|----------------------------------------------------------------|

After "I should have known that you were a killer" – verse
“A gaping hole, shot through my heart, a lost connection, from your poison dart”
(sounds good without hammer-on 7h9)
e|----------------------------------------------------------------|
B|----------------------------------------------------------------|
G|----------------------------------------------------------------|
D|----------------------------------------------------------------| x 4
A|-0-0-0-0-0-0-0-0-9-9-9-9-9-9-9-7h9-5-5-5-5-5-5---5---5----------|
D|-0-0-0-0-0-0-0-0-9-9-9-9-9-9-9-7h9-5-5-5-5-5-5---5---5----------|


Guitar one
e|----------------------------------------------------------------|
B|----------------------------------------------------------------|
G|----------------------------------------------------------------|
D|----------------------------------------------------------------| x 2
A|-9-9-9-9-9-9-9-9-5-5-5-5-5-5-5-5-0-0-0-0-0-0-0-0-4-4-4-4-4-4-4-4|
D|-9-9-9-9-9-9-9-9-5-5-5-5-5-5-5-5-0-0-0-0-0-0-0-0-4-4-4-4-4-4-4-4|

Guitar two
e|----------------------------------------------------------------|
B|----------------------------------------------------------------|
G|-77777777-6-22222222-7-9-11-12-9-7-6-7--------------------------|
D|-xxxxxxxx-x-xxxxxxxx-x-x--x--x-x-x-x-x--------------------------| x 2
A|-55555555-4-00000000-5-7--9-10-7-5-4-5--------------------------|
D|----------------------------------------------------------------|
Then quick intro picking from guitar one and then start verse but play the 5th fret only 6 times and then pause, then carry on with verse. Also intro is played with palm muting and distortion on that verse.

Chorus 2 (towards end.)

Guitar one
e|----------------------------------------------------------------|
B|-------------------------------P--------------------------------|
G|-------------------------------A--------------------------------|
D|-------------------------------U--------------------------------| x 4
A|-9-9-9-9-9-9-9-9-5-5-5-5-5-5-5-S-0-0-0-0-0-0-0-0-4-4-4-4-4-4-4-4|
D|-9-9-9-9-9-9-9-9-5-5-5-5-5-5-5-E-0-0-0-0-0-0-0-0-4-4-4-4-4-4-4-4|

Guitar two
e|----------------------------------------------------------------|
B|--------------------P-------------------------------------------|
G|-77777777-6-2222222-A--7-9-11-12-9-7-6-7------------------------|
D|-xxxxxxxx-x-xxxxxxx-U--x-x--x--x-x-x-x-x------------------------| x 4
A|-55555555-4-0000000-S--5-7--9-10-7-5-4-5------------------------|
D|--------------------E-------------------------------------------|

THEN X 2 WITHOUT PAUSE ( X 6 TOTAL)
Guitar one
e|----------------------------------------------------------------|
B|----------------------------------------------------------------|
G|----------------------------------------------------------------|
D|----------------------------------------------------------------| x 2
A|-9-9-9-9-9-9-9-9-5-5-5-5-5-5-5-5-0-0-0-0-0-0-0-0-4-4-4-4-4-4-4-4|
D|-9-9-9-9-9-9-9-9-5-5-5-5-5-5-5-5-0-0-0-0-0-0-0-0-4-4-4-4-4-4-4-4|

Guitar 2
e|----------------------------------------------------------------|
B|----------------------------------------------------------------|
G|-77777777-6-22222222-7-9-11-12-9-7-6-7--------------------------|
D|-xxxxxxxx-x-xxxxxxxx-x-x--x--x-x-x-x-x--------------------------| x 2
A|-55555555-4-00000000-5-7--9-10-7-5-4-5--------------------------|
D|----------------------------------------------------------------|


Guitar 2 ending
e|---------------------------------|
B|---------------------------------|
G|--11-----12-------end on 11------|
D|---x-x8---x-x6------------x------|
A|---9-----10---------------9------|
D|---------------------------------|

Order!
Intro x 14 (guitar 2 x 8)
Verse x 4
Chorus x 2
Intro x 1
Verse x 4
Chorus x 2 (with 5th fret held down DAD x 7 at end)
Chorus two x 6
Guitar 2 ending