Stop Censorship
 
 

 
 1-9 a b c d e f g h i j k l m n o p q r s t u v w x y z
   Senses Fail - 187 Tab    

Drop d Intro Guitar 1
E|---------0--------------0----------------0-------------0--------|
B|------3-----3-3------3----3-----------3----3--3-----3----3--3---|
G|--2-2--2-----2---4-4--4-----2h4---0-0---0---0---0-0---0----0--0-|
D|----------------------------------------------------------------|
A|----------------------------------------------------------------|
D|----------------------------------------------------------------|


Guitar 2(listen to tell when this comes in )

E|-12-12-12-12-10-10-10-9h10-9-9-9-9-9-9-9-9----------------------|
B|----------------------------------------------------------------|
G|----------------------------------------------------------------|
D|----------------------------------------------------------------|
A|----------------------------------------------------------------|
E|----------------------------------------------------------------|

Verse (a gaping hole shot through my heart........)
E|----------------------------------------------------------------|
B|----------------------------------------------------------------|
G|----------------------------------------------------------------|
D|----------------------------------------------------------------|
A|-0-0-0-0-0-0-0-0-9-9-9-9-9-9-9-7h9-5-5-5-5-5-5---5---5----------|
D|-0-0-0-0-0-0-0-0-9-9-9-9-9-9-9-7h9-5-5-5-5-5-5---5---5----------|