Stop Censorship
 
 

 
 1-9 a b c d e f g h i j k l m n o p q r s t u v w x y z
   Senses Fail - Bite To Break Skin Tab    

Artist: Senses Fail
Song: Bite to Break Skin ( OFF the drive thru invasion comp)
Drop D tuning DADGBe
By:Jason Golden4670@aol.com


Guitar 1

Intro:
e|-----------8-------------8-------8---|
B|--5h6p5h6--------5h6p5h6-----5h6-----|
G|-------------------------------------|X 10 (After second time Guitar 2
D|-------------------------------------| comes in)
A|-------------------------------------|
D|-------------------------------------|

Intro 2
e|---------------------------------------------------------------------------|
B|--5h6p5h6--8---5h6p5h6--8---5h6--8------5h6p5h6--6---5h6p5h6--6---5h6--6---|
G|---------------------------------------------------------------------------|
D|---------------------------------------------------------------------------|
A|---------------------------------------------------------------------------|
D|---------------------------------------------------------------------------|

e|-----------8-------------8---------8-----------8-------------8-------8---|
B|--5h6p5h6------5h6p5h6--------5h6-----5h6p5h6------5h6p5h6-------5h6-----|
G|-------------------------------------------------------------------------|
D|-------------------------------------------------------------------------|X2
A|-------------------------------------------------------------------------|
D|-------------------------------------------------------------------------|

Verse:
e|---------------------------------------------------------------------------|
B|---------------------------------------------------------------------------|
G|---------------------------------------------------------------------------|
D|---0~-----8-8-8------------------------------------------------------------|
A|---0~-----8-8-8---X2(has bass fill in between)-----------------------------|
D|---0~-----8-8-8------------------------------------------------------------|
. . .

e|---------------------------------------------------------------------------|
B|---------------------------------------------------------------------------|
G|---------------------------------------------------------------------------|
D|--0-0-0-------7-7-7----8888--8888--7777--8888------------------------------|
A|--0-0-0-------7-7-7----8888--8888--7777--8888---X2-------------------------|
D|--0-0-0-------7-7-7----8888--8888--7777--8888------------------------------|
. . . . .... .... .... ....

Prechorus (Theses are the chords, the sruming is easy if u listen)
e|---------------------------------------------------------------------------|
B|---------------------------------------------------------------------------|
G|---------------------------------------------------------------------------|
D|--0----8----7---8----------------------------------------------------------|
A|--0----8----7---8----------------------------------------------------------|
D|--0----8----7---8----------------------------------------------------------|

Then play INTRO 2 again (which is the chorus)

Verse 2:
e|---------------------------------------------------------------------------|
B|---------------------------------------------------------------------------|
G|---------------------------------------------------------------------------|
D|--0000----7777---8888--8888---7777--8888-----------------------------------|
A|--0000----7777---8888--8888---7777--8888-----------------------------------|
D|--0000----7777---8888--8888---7777--8888-----------------------------------|
.... .... .... .... .... ....

e|---------------------------------------------------------------------------|
B|---------------------------------------------------------------------------|
G|---------------------------------------------------------------------------|
D|--0-0-0-------7-7-7----8888--8888--7777--8888------------------------------|
A|--0-0-0-------7-7-7----8888--8888--7777--8888------------------------------|
D|--0-0-0-------7-7-7----8888--8888--7777--8888------------------------------|
. . . . .... .... .... ....

Then play the Prechorus and chorus (Intro 2)

Bridge: here are the chords it is palm muted and easy to figure out
e|------------------------|
B|------------------------|
G|------------------------|
D|---0----8----7---8------|X 4
A|---0----8----7---8------|
D|---0----8----7---8------|

Outro: pattern self explanitory if you listen
(listen carfully for the quick changes at the end)
e|---------------------------------------------|
B|---------------------------------------------|
G|----------------------9--10-9--12--10--9-----|
D|---0---8---7---8------7--8--7--10--8---7-----|X 2
A|---0---8---7---8------7--8--7--10--8---7-----|
D|---0---8---7---8------7--8--7--10--8---7-----|


Guitar 2

Intro: Comes in after the first 2 times of other intro
e|----------------------------|
B|----------------------------|
G|----------------------------|
D|---0~---8~---7~----8~-------|X 2
A|---0~---8~---7~----8~-------|
D|---0~---8~---7~----8~-------|

Intro 2: is the same chords as above but in a stumming pattern
(easy to figure out)

Verse and prechorus (same as guitar one)

Chorus: Basic strumming pattern
e|------------------------|
B|------------------------|
G|------------------------|
D|-----0----8----3---2----|X 2
A|-----0----8----3---2----|
D|-----0----8----3---2----|

Verse 2
Prechorus
Chorus

Bridge: After guitar 1 does bridge one time Guitar 2 comes in
(listen for pattern)
e|------------------------|
B|------------------------|
G|--14---10---5---10------|
D|---x----x---x---x-------|X 3
A|--12----8---3---8-------|
D|------------------------|

Outro:
e|----------8-------------10-8--|
B|--5-6-5 --------5-6-5---------|
G|------------------------------|
D|------------------------------| X8
A|------------------------------|
D|------------------------------|