Stop Censorship
 
 

 
 1-9 a b c d e f g h i j k l m n o p q r s t u v w x y z
   Senses Fail - Bite To Break Skin Tab    

Tabbed by: Steven Matthews
Senses Fail: Bite To Break Skin.
*=palm mute
Tuning = D, A, D, G, B, E. (drop D)

Intro: Lead x10. Twice alone with drums.
E|--------------------------------
B|-----------13--------13------13-
G|-9-10-9-10----9-10-9----9-10----
D|--------------------------------
A|--------------------------------
D|--------------------------------

Intro: rhythm x 2.
E|--------------------------------
B|--------------------------------
G|--------------------------------
D|-0~---8~---7~---8~--------------
A|-0~---8~---7~---8~--------------
D|-0~---8~---7~---8~--------------

Intro Part 2: Lead x2
E|---------------------------
B|----------8-------8-----8--
G|-9-10-9-10--9-10-9--9-10---
D|---------------------------
A|---------------------------
D|---------------------------

E|---------------------------
B|--------6------6----6------
G|-7-8-7-8--7-8-7--7-8-------
D|---------------------------
A|---------------------------
D|---------------------------

E|--------8---------8------|---------8---------8------
B|-5-6-5-6—--5-6|5-6--5/6--|--5-6-5-6—--5-6|5-6--5/6--
G|- --------------------------------------------------
D|----------------------------------------------------
A|----------------------------------------------------
D|----------------------------------------------------

Intro Part 2: rhythm x 2.
E|-------------------------------------------------------------------------
B|-------------------------------------------------------------------------
G|-------------------------------------------------------------------------
D|-0000-0-00-00-000--8888-8-88-88-888--7777-7-77-77-777-8888-8-88-88-888---
A|-0000-0-00-00-000--8888-8-88-88-888--7777-7-77-77-777-8888-8-88-88-888---
D|-0000-0-00-00-000--8888-8-88-88-888--7777-7-77-77-777-8888-8-88-88-888---

Verse 1
E|---------------------------------
B|---------------------------------
G|---------------------------------
D|-0~-8-|--0~-7--------------------
A|-0~-8-|--0~-7--------------------
D|-0~-8-|--0~-7--------------------
* *
Verse 1: Part 2 x2 | End on
E|--------------------------|----------
B|--------------------------|----------
G|--------------------------|-10-------
D|-777-888-777-8888-777-888-|-8--------
A|-777-888-777-8888-777-888-|-8--------
D|-777-888-777-8888-777-888-|-8--------
*** *** *** **** *** ***

Pre Chorus
E|-----------------------------------------------------------------------
B|-----------------------------------------------------------------------
G|-----------------------------------------------------------------------
D|-00000000000-88888888888-777777777777-88888888-10101010----------------
A|-00000000000-88888888888-777777777777-88888888-10101010----------------
D|-00000000000-88888888888-777777777777-88888888-10101010----------------

Chorus: rhythm: x2
E|-------------------------------------------------------------
B|-------------------------------------------------------------
G|-------------------------------------------------------------
D|-00000000000-88888888888-333333333333333333333333------------
A|-00000000000-88888888888-333333333333333333333333------------
D|-00000000000-88888888888-333333333333333333333333------------

Chorus: Lead x2
E|---------------------------
B|----------8-------8-----8--
G|-9-10-9-10--9-10-9--9-10---
D|---------------------------
A|---------------------------
D|---------------------------

E|---------------------------
B|--------6------6----6------
G|-7-8-7-8--7-8-7--7-8-------
D|---------------------------
A|---------------------------
D|---------------------------

E|--------8---------8------|---------8---------8------
B|-5-6-5-6—--5-6|5-6--5/6--|--5-6-5-6—--5-6|5-6--5/6--
G|- --------------------------------------------------
D|----------------------------------------------------
A|----------------------------------------------------
D|----------------------------------------------------

Verse 2
E|---------------------------------------------------------------
B|---------------------------------------------------------------
G|-----------------------------|-----------------------------10--
D|-0000-7777-8888-7777-8888-77-|-0000-7777-8888-7777-8888-77-8---
A|-0000-7777-8888-7777-8888-77-|-0000-7777-8888-7777-8888-77-8---
D|-0000-7777-8888-7777-8888-77-|-0000-7777-8888-7777-8888-77-8---

Verse 1: Part 2 x2 | End on
E|--------------------------|----------
B|--------------------------|----------
G|--------------------------|-10-------
D|-777-888-777-8888-777-888-|-8--------
A|-777-888-777-8888-777-888-|-8--------
D|-777-888-777-8888-777-888-|-8--------
*** *** *** **** *** ***

Pre Chorus
E|-----------------------------------------------------------------------
B|-----------------------------------------------------------------------
G|-----------------------------------------------------------------------
D|-00000000000-88888888888-777777777777-88888888-10101010----------------
A|-00000000000-88888888888-777777777777-88888888-10101010----------------
D|-00000000000-88888888888-777777777777-88888888-10101010----------------

Chorus: rhythm: x2
E|-------------------------------------------------------------
B|-------------------------------------------------------------
G|-------------------------------------------------------------
D|-00000000000-88888888888-333333333333333333333333------------
A|-00000000000-88888888888-333333333333333333333333------------
D|-00000000000-88888888888-333333333333333333333333------------

Chorus: Lead x2
E|---------------------------
B|----------8-------8-----8--
G|-9-10-9-10--9-10-9--9-10---
D|---------------------------
A|---------------------------
D|---------------------------

E|---------------------------
B|--------6------6----6------
G|-7-8-7-8--7-8-7--7-8-------
D|---------------------------
A|---------------------------
D|---------------------------

E|--------8---------8------|---------8---------8------
B|-5-6-5-6—--5-6|5-6--5/6--|--5-6-5-6—--5-6|5-6--5/6--
G|- --------------------------------------------------
D|----------------------------------------------------
A|----------------------------------------------------
D|----------------------------------------------------

Break Down thingy part 1: rhythm x4.
E|-------------------------------------------------------------------------
B|-------------------------------------------------------------------------
G|-------------------------------------------------------------------------
D|-00000000-00-000-88888888-88-888-77777777-77-777-88888888-88-888---------
A|-00000000-00-000-88888888-88-888-77777777-77-777-88888888-88-888---------
D|-00000000-00-000-88888888-88-888-77777777-77-777-88888888-88-888---------

Break Down thingy part 1: lead x3.
E|-------------------------------------------------------------------------
B|-------------------------------------------------------------------------
G|-1414141414141414-1414-141414--1010101010101010-1010-101010--------------
D|-xxxxxxxxxxxxxxxx-xxxx-xxxxxx--xxxxxxxxxxxxxxxx-xxxx-xxxxxx--------------
A|-1212121212121212-1212-121212--8.8.8.8.8.8.8.8.-8.8.-8.8.8.--------------
D|-------------------------------------------------------------------------

Break Down thingy part 1: lead continued.
E|-------------------------------------------------------------------------
B|-------------------------------------------------------------------------
G|-55555555-55-555---1010101010101010-1010-101010--------------------------
D|-xxxxxxxx-xx-xxx---xxxxxxxxxxxxxxxx-xxxx-xxxxxx--------------------------
A|-33333333-33-333---8.8.8.8.8.8.8.8.-8.8.-8.8.8.--------------------------
D|-------------------------------------------------------------------------

Break Down part 2: rhythm
E|---------------|---------------|---------------|---------------|--------------
B|---------------|---------------|---------------|---------------|--------------
G|---------------|---------------|---------------|---------------|--------------
D|-000-8-000-8/7-|-000-8-000-8/7-|-000-8-000-8/7-|-000-8-000-8/7-|-8/7/8-10/8/7-
A|-000-8-000-8/7-|-000-8-000-8/7-|-000-8-000-8/7-|-000-8-000-8/7-|-8/7/8-10/8/7-
D|-000-8-000-8/7-|-000-8-000-8/7-|-000-8-000-8/7-|-000-8-000-8/7-|-8/7/8-10/8/7-

Break Down part 2: lead.
E|-----------------------|-----------------------|
B|--------13--------13---|--------13--------13---|
G|-9-10-9----9-10-9---12-|-9-10-9----9-10-9---12-|
D|-----------------------|-----------------------|
A|-----------------------|-----------------------|
D|-----------------------|-----------------------|

Continued…
E|-----------------------|-----------------------|------------------|
B|--------13--------13---|--------13--------13---|------------------|
G|-9-10-9----9-10-9---12-|-9-10-9----9-10-9---12-|-10/9/10-12/10/9--|
D|-----------------------|-----------------------|-8./7/8.-10/8./7--|
A|-----------------------|-----------------------|-8./7/8.-10/8./7--|
D|-----------------------|-----------------------|-8./7/8.-10/8./7--|

Easy song and fun to play.
Enjoy ?