Stop Censorship
 
 

 
 1-9 a b c d e f g h i j k l m n o p q r s t u v w x y z
   Senses Fail - Buried A Lie Tab    

Intro
Guitar 1
|------------------------------|
|------------------------------|
|------------------------------|
|-1-2-7--6-2-4--2-1-2-7--6-2-4-|
|------------------------------|
|------------------------------|

Chorus
Guitar 1
Intro

|-----------------------------------------------|
|-----------------------------------------------|
|-3-3-3-4-4-4-9-9-9--8-8-8/96-6-6/8-8----------|
|-1-1-1-2-2-2-7-7-7--6-6-6/74-4-4/6-6----------|
|-1-1-1-2-2-2-7-7-7--6-6-6/74-4-4/6-6----------|
|-----------------------------------------------|

the verse is just palm muting...too lazy to tab that out. not too hard to get.

(my guitar`s in a lower tuning. try a drop c to play it like this)


this is their new song they`ve been playin live. its mad popular, and you can hear it on their website, sensesfail.com. my first tab...i`ll add more later.