Stop Censorship
 
 

 
 1-9 a b c d e f g h i j k l m n o p q r s t u v w x y z
   Senses Fail - Choke On This Tab    

Band: Senses Fail
Song: Choke On This (Guitar 1 only)
Album: Let It Enfold You
Tuning: Standard Drop D
Tabber: Roger Durivage
Email: rufio_rd@hotmail.com

This tab is for one guitar so far, other guitar to come!

------------------------------------------------------------------------------------
Guitar One - Left Speaker
------------------------------------------------------------------------------------

Intro - "It`s 4 a.m. and we will stalk again..."
e|------------------------------------------------------------------------
|------------------------------------------------------------------------
|------------------------------------------------------------------------
|------------------------------------------------------------------------
|------------------------------------------------------------------------
E|-4444444444444444-00000000000000000-777777777777777777-6666666666666666-
PM ................ ................. .................. ................

Intro Cont.
e|----------------------------------------------------------
|----------------------------------------------------------
|----------------------------------------------------------
|-------------------------------------------------------7~-
|-------------------------------------------------------7~-
E|-4444444444444444-00000000000000000-777777777777777777-6~-
PM ................ ................. ..................

Chorus - No Words this time. (X2) There`s a slight pause after the first chord
e|------------------------------------------------------------------------
|------------------------------------------------------------------------
|------------------------------------------------------------------------
|-4444444444444444-00000000000000000-777777777777777777-7777777777777777-
|-4444444444444444-00000000000000000-777777777777777777-7777777777777777-
E|-4444444444444444-00000000000000000-777777777777777777-6666666666666666

Chorus Cont.

Verse - "So speak your mind..."
e|-------0~------5~--4~--2~--------------0~------5~--4~--2~-----
|-2~--------2~--------------2~----2~--------2~--------------2~-
|--------------------------------------------------------------
|--------------------------------------------------------------
|--------------------------------------------------------------
E|--------------------------------------------------------------

Verse Cont. - "Coming straight from up the water..."
e|--------0-------- ----------
|----2-----2---2-- ----------
|-22---2-----2----(X7) then.----------
|------------------ -0-000000-
|------------------ -0-000000-
E|------------------ -0-000000-
PM .. . . ......

Repeat Chorus - "It`s 4 a.m. and we will stalk again..."
Repeat Verse - "And this false start..."
Repeat Chorus - "It`s 4 a.m. and we will stalk again..."

Bridge - "An angel, on his two knees..." (slide from each chord.)
e|------------------- ----------------------------
|------------------- ----------------------------
|-11-9-7-6~--7~--6~- -11-9-7-6~--7~--9~--7~--66x-
|-x--x-x-x~--x~--x~-(X3)then.-x--x-x-x~--x~--x~--x~--xxx-
|-9--7-5-4~--5~--4~- -9--7-5-4~--5~--7~--5~--44x-
E|------------------- ----------------------------

Bridge Cont. -"It`s plain to see..." (X2)
e|----------------- -------------------------------
|----------------- -------------------------------
|-11-9-7-6-7777-6- -11-9-7-6-777-6-999999-7777-66-
|-x--x-x-x-xxxx-x-(X2)then.-x--x-x-x-xxx-x-xxxxxx-xxxx-xx-
|-9--7-5-4-5555-4- -9--7-5-4-555-4-777777-5555-44-
E|----------------- -------------------------------

Repeat the second part of Bridge - "But in this place..."
Repeat the Chorus - (with pauses)

End on this:
e|----
|----
|----
|-0~-
|-0~-
E|-0~-