Stop Censorship
 
 

 
 1-9 a b c d e f g h i j k l m n o p q r s t u v w x y z
   Senses Fail - Cute When You Scream Tab    



Intro
e------------------------------------------------------------------------------
b------------------------------------------------------------------------------
g------------------------------------------------------------------------------
d---5~----8p5-7p5-5h7----------------------------------------------------------
a---5~-------------------------------------------------------------------------
D---5~-------------------------------------------------------------------------

Verse (x4)
e------------------------------------------------------------------------------
b------------------------------------------------------------------------------
g------------------------------------------------------------------------------
d--5----5h7h8--5-5--5h7h8----5-5--5h7h8----1--3--------------------------------
a--5-----------5-5-----------5-5-----------1--3--------------------------------
D--5-----------5-5-----------5-5-----------1--3--------------------------------

Pre chorus (x1)
"and all i know...."
e------------------------------------------------------------------------------
b------------------------------------------------------------------------------
g------------------------------------------------------------------------------
d--1---3---5---3---------------------------------------------------------------
a--1---3---5---3---------------------------------------------------------------
D--1---3---5---3---------------------------------------------------------------

Chorus (x2)
"You know, that you are worthless..."
e-------------------------------------------------------------------------------
b-------------------------------------------------------------------------------
g-------------------------------------------------------------------------------
d---5---1---3--3----------------------------------------------------------------
a---5---1---1--3----------------------------------------------------------------
D---5---1------3----------------------------------------------------------------

Verse (x2)

Prechours

Chorus

Bridge (x4)
"ill take you, up to the top.."

Palm mute the last 2 times, but dont palm mute the last 2 chors on the last time

e--------------------------------------------------------------------------------
b--------------------------------------------------------------------------------
g--------------------------------------------------------------------------------
d----1~--3~---0~---3--3----------------------------------------------------------
a----1~--3~---0~---1--0----------------------------------------------------------
D----1~--3~---0~-----------------------------------------------------------------

Chours

Last verse(x1)

the last verse is played like the 1st and 2nd just with no lead, as follows
"this time, i win, so heres your kiss goodbye"
e--------------------------------------------------------------------------------
b--------------------------------------------------------------------------------
g--------------------------------------------------------------------------------
d--5----5-5---5-5---1--3---5-----------------------------------------------------
a--5----5-5---5-5---1--3---5-----------------------------------------------------
D--5----5-5---5-5---1--3---5-----------------------------------------------------

end on 5

Song order

Intro
Verse
Prechours
Chorus
Verse (x2)
Prechorus
Chorus
Bridge
Chorus
Last Verse

the strumming isnt given here, but its very simple, you should be able to get it easily. this is a great song so have fun with it