Stop Censorship
 
 

 
 1-9 a b c d e f g h i j k l m n o p q r s t u v w x y z
   Senses Fail - Freefall Without A Parachute Tab    

Senses Fail
Free Fall Without a Parachute
Tabbed By Jake loleit
Questions or comments: jakeloleit@hotmail.com

Tuned in Drop D

Intro
|-----------0-------------0-------------0-----------------------------------|
|-------6-----6---6---6-----6---6---6-----6---6-----------------------------|
|---------5-----5-------5-----5-------5-----5-------------------------------|
|---0-0-------------0-------------0-----------------------------------------|
|---------------------------------------------------------------------------|
|---------------------------------------------------------------------------|

|-------------------------------------------|
|-------------------------------------------|
|--10--12--10--9----10--12-10-9----2--3--3--|
|--x---x---x---x----x---x--x--x----2--3--3--| 2x`s
|--8---10--8---7----8---10-8--7----0--1--1--|
|-------------------------------------------|
Verse
|-----------------------------------------------------|
|-----------------------------------------------------|
|-----------------------------3-3-3-3-222-3-3-3-3-222-|
|-0-0-0-0--555--0-0-0-0--555--3-3-3-3-222-3-3-3-3-222-|
|-0-0-0-0--555--0-0-0-0--555--1-1-1-1-000-1-1-1-1-000-|
|-0-0-0-0--555--0-0-0-0--555--------------------------|

Pre-Chorus

|-------------------------------------------|
|-------------------------------------------|
|--10--12--10--9----10--12-10-9----2--3--3--|
|--x---x---x---x----x---x--x--x----2--3--3--|
|--8---10--8---7----8---10-8--7----0--1--1--|
|-------------------------------------------|

|-----------------------------------------------|
|-----------------------------------------------|
|--10--12--10--9----10--12-10-9----2--3--3----5-|
|--x---x---x---x----x---x--x--x----2--3--3----5-|
|--8---10--8---7----8---10-8--7----0--1--1----3-|
|-----------------------------------------------|

Chorus
|-----------|
|-----------|
|-----3-----|
|-3-0-3-3-2-|
|-3-0-1-3-2-|
|-3-0---3-2-|

Verse

Pre- Verse

Chorus 2x`s

Breakdown
|---| |---------|
|---| |---------|
|-3-| Then |-3---3---|
|-3-| |-3-0-3-0-|
|-1-| |-1-0-1-0-|
|---| |---0---0-|

Chorus 3x`s

Ending
|------------------|
|------------------|
|-10-12-10-9-10-12-|2x`s
|-x--x--x--x-x--x--|
|-8--10-8--7-8--10-|
|------------------|