Stop Censorship
 
 

 
 1-9 a b c d e f g h i j k l m n o p q r s t u v w x y z
   Senses Fail - Lady In A Blue Dress Tab    

Guitar 1(Intro) clean with some kind of effect
E|--0--0h-0--0--
B|--7--5h-7--5--
G|--7--7h-7--7--
D|--0--0h-0--0--
A|-------------

Guitar 2(Intro) clean with some kind of effect
E|-------------
B|-------------
G|-------------
D|--9--7--5----
A|--9--7--5----
D|--9--7--5----

Guitar 1(Intro) clean with some kind of effect
E|--0--0-0--0--
B|--7--5-7--5--
G|--7--7-7--7--
D|--0--0-0--0--
A|-------------
D|-------------

Guitar 2(Intro) ditorted
E|--------------
B|--------------
G|--------------
D|--9--7--5--7--
A|--9--7--5--7--
D|--9--7--5--7--

Guitar 1(Verse) clean
E|--0--0-0--0-- E|----------------------0--0--0--0--0--0--------
B|--7--5-7--5--then B|--7--7--7--7--7--5--5--7--7--7--7--7--7--5--5-
G|--7--7-7--7-- G|---7--7--7--7--7--7-----7--7--7--7--7--7--7---
D|--0--0-0--0-- D|----0--0--0--0--0--0-----------------------0--
A|------------- A|----------------------------------------------
D|------------- D|----------------------------------------------

Guitar 2(Verse) clean distorted
E|------------------ E|-----------
B|------------------then B|-----------
G|------------------ G|-14--15----
D|--9--7--5--7--9--- D|--x--x-----
A|--9--7--5--7--9--- A|-12-13-----
D|--9-----5-----9--- D|-----------


Guitar 1(chorus) ditorted
E|----------------------0--0--0--0--0--0--------
B|--7--7--7--7--7--5--5--7--7--7--7--7--7--5--5-
G|---7--7--7--7--7--7-----7--7--7--7--7--7--7---
D|----0--0--0--0--0--0-----------------------0--
A|----------------------------------------------
D|----------------------------------------------

Guitar2 (Chorus) distorted
E|--------------
B|--------------
G|--------------
D|-7--7--9--5---
A|-5--7--9--5---
D|----7--9--5---


Guitar 1(breakdown) ditorted
E|----------------------------------------------
B|----------------------------------------------
G|--11--14--7--12p-11-----------------------------------
D|--x---x---x--x---x--------------------------------
A|--9---12--5--10p-9-----------------------------------
D|----------------------------------------------

Guitar2 (breakdown) distorted
E|--------------
B|--------------
G|--------------
D|--9--12--5----
A|--9--12--5----
D|--9--12--5----

i only put the chords and not the rythym because its easy to figure out

intro
verse
chorus
verse
chorus
breakdown
verse (distorted)
chorus