Stop Censorship
 
 

 
 1-9 a b c d e f g h i j k l m n o p q r s t u v w x y z
   Senses Fail - Martini Kiss Tab    

Band: Senses Fail
Song: Martini Kiss
Album: Let It Enfold You
Tuning: Standard Dropped D
Tabber: Roger Durivage
E-mail: rufio_rd@hotmail.com

This is definately 100%, i wouldn`t post it is it wasn`t!
PLEASE RATE!!!

---------------------------------------------------------------------
Guitar One
---------------------------------------------------------------------
Intro - (X2)
e|-----------------------------------------------
|-----------------------------------------------
|-----------------------------------------------
|-----------------------------------------------
|-----111-000-888-77-33-----111-000-888-1010-77-
E|-000-------------------000---------------------
PM ... ... ... ... .. .. ... ... ... ... . . ..

Chorus - (X2)
e|--------------------------------------------------------------------
|--------------------------------------------------------------------
|----------------------------------------------------10101010-999999-
|-88888-8888-888-88888-8888-8/10-1010-00000-0000-000-x-x-x-x--xxxxxx-
|-88888-8888-888-88888-8888-8/10-1010-00000-0000-000-8-8-8-8--777777-
E|-88888-8888-888-88888-8888-8/10-1010-00000-0000-000-----------------

Repeat Intro 1X

Verse - "There`s poisin in my drinking glass..."
e|-------------------------------------------------------------------
|-------------------------------------------------------------------
|-------------------------------------------------------------------
|-88888-8888-888-88888-8888-8/10-1010-00000-0000-000-00000-0000-000-
|-88888-8888-888-88888-8888-8/10-1010-00000-0000-000-00000-0000-000-
E|-88888-8888-888-88888-8888-8/10-1010-00000-0000-000-00000-0000-000-
PM ..... .... ... ..... .... ..... .... ... ..... .... ...

Verse Cont.
e|------------------------------------------------------------------------
|------------------------------------------------------------------------
|----------------------------------------------------10101010-999-101010-
|-88888-8888-888-88888-8888-8/10-1010-00000-0000-000-8-8-8-8--777-101010-
|-88888-8888-888-88888-8888-8/10-1010-00000-0000-000-8-8-8-8--777-8-8-8--
E|-88888-8888-888-88888-8888-8/10-1010-00000-0000-000---------------------

Repeat Chorus - "Burn Out! not fade away, Burn Out, not fade away..."

Part after Chorus - "I speak in riddles so you can understand..." (X2)
e|--------------------------------------------------
|--------------------------------------------------
|-1010101010101010-999999999-777777-555-7777777777-
|-1010101010101010-999999999-777777-555-7777777777-
|-8-8-8-8-8-8-8-8--777777777-555555-333-5555555555-
E|--------------------------------------------------

Repeat Chorus 1X
Repeat Verse
Repeat Chorus 2X
Repeat Part after Chorus X2
Repeat Intro 2X (with effect, not sure what one)

Bridge
e|---------------------------------------------------------
|---------------------------------------------------------
|-------10-9-5--------10-12-9-------10-9-5--------10-12-9-
|-0-8-0-x--x-x--0-8-0-x--x--x-0-8-0-x--x-x--0-8-0-x--x--x-
|-0-8-0-8--7-3--0-8-0-8--10-7-0-8-0-8--7-3--0-8-0-8--10-7-
E|-0-8-0---------0-8-0---------0-8-0---------0-8-0---------

Bridge Cont. - "The ????? will fade away..."
e|---------------------------------------------------
|---------------------------------------------------
|-151515151515151515151515-171717171717171717171717-
|-x-x-x-x-x-x-x-x-x-x-x-x--x-x-x-x-x-x-x-x-x-x-x-x--
|-131313131313131313131313-151515151515151515151515-
E|---------------------------------------------------

Bridge Cont.
e|-----------------------------------------------
|-----------------------------------------------
|-----------------------------------------------
|-0000-0-0-0000-0-0000-0-0000-0-0-0000-0-0000-0-
|-0000-0-0-0000-0-0000-0-0000-0-0-0000-0-0000-0-
E|-0000-0-0-0000-0-0000-0-0000-0-0-0000-0-0000-0-
PM .... .... .... .... .... ....

Bridge Cont. - "The kings at..."
e|---------------------------------------------------
|---------------------------------------------------
|-151515151515151515151515-171717171717171717171717-
|-x-x-x-x-x-x-x-x-x-x-x-x--x-x-x-x-x-x-x-x-x-x-x-x--
|-131313131313131313131313-151515151515151515151515-
E|---------------------------------------------------

Bridge Cont.
e|-----------------------------------------------
|-----------------------------------------------
|-----------------------------------------------
|-0000-0-0-0000-0-0000-0-0000-0-0-0000-0-0000-0-
|-0000-0-0-0000-0-0000-0-0000-0-0-0000-0-0000-0-
E|-0000-0-0-0000-0-0000-0-0000-0-0-0000-0-0000-0-
PM .... .... .... .... .... ....

Bridge Cont. - "And i say with a secret..."
e|---------------------------------------------------
|---------------------------------------------------
|-151515151515151515151515-171717171717171717171717-
|-x-x-x-x-x-x-x-x-x-x-x-x--x-x-x-x-x-x-x-x-x-x-x-x--
|-131313131313131313131313-151515151515151515151515-
E|---------------------------------------------------

Bridge Cont "Choking as I laugh into..."|Slowly bend chord as you strum
e|------------------------------|-------------------------
|------------------------------|-------------------------
|-151515151515151515151515-----|171717171717171717171717-
|-x-x-x-x-x-x-x-x-x-x-x-x------|x-x-x-x-x-x-x-x-x-x-x-x--
|-131313131313131313131313-----|151515151515151515151515-
E|------------------------------|-------------------------

Ending
e|-----------------------------------------------
|-----------------------------------------------
|-----------------------------------------------
|-0000-0-0-0000-0-0000-0-0000-0-0-0000-0-0000-0-
|-0000-0-0-0000-0-0000-0-0000-0-0-0000-0-0000-0-
E|-0000-0-0-0000-0-0000-0-0000-0-0-0000-0-0000-0-
PM .... .... .... .... .... ....

Ending Cont.
e|-----------------------------------------------
|-----------------------------------------------
|-----------------------------------------------
|-0000-0-0-0000-0-0000-0-0000-0-0-0000-0-0000-0-
|-0000-0-0-0000-0-0000-0-0000-0-0-0000-0-0000-0-
E|-0000-0-0-0000-0-0000-0-0000-0-0-0000-0-0000-0-
PM .... .... .... .... .... ....

Ending Cont.
e|---------------------------
|---------------------------
|---------------------------
|-0000-0-0-0000-0-0000-0-0x-
|-0000-0-0-0000-0-0000-0-0x-
E|-0000-0-0-0000-0-0000-0-0x-
PM .... .... ....





---------------------------------------------------------------
Guitar Two
---------------------------------------------------------------

Intro only guitar one

Chorus
e|------------------------------------------------------------
|-101010-888-666-888-66-55-(3X)then... 666-888-666-555-66-55-
|------------------------------------------------------------
|------------------------------------------------------------
|------------------------------------------------------------
E|------------------------------------------------------------

Chorus Cont. - No Words
e|--8-8-8-666-555-666-55-33-------------555-666-555-333-55-33~-
|-101010-888-666-888-66-55-(3X)then... 666-888-666-555-66-55~-
|-------------------------------------------------------------
|-------------------------------------------------------------
|-------------------------------------------------------------
E|-------------------------------------------------------------

Verse - "There`s poisin in my drinking glass..."
e|-------------------------------------------------------------------
|-------------------------------------------------------------------
|-------------------------------------------------------------------
|-88888-8888-888-88888-8888-8/10-1010-00000-0000-000-00000-0000-000-
|-88888-8888-888-88888-8888-8/10-1010-00000-0000-000-00000-0000-000-
E|-88888-8888-888-88888-8888-8/10-1010-00000-0000-000-00000-0000-000-
PM ..... .... ... ..... .... ..... .... ... ..... .... ...

Verse Cont.
e|------------------------------------------------------------------------
|------------------------------------------------------------------------
|----------------------------------------------------10101010-999-101010-
|-88888-8888-888-88888-8888-8/10-1010-00000-0000-000-8-8-8-8--777-101010-
|-88888-8888-888-88888-8888-8/10-1010-00000-0000-000-8-8-8-8--777-8-8-8--
E|-88888-8888-888-88888-8888-8/10-1010-00000-0000-000---------------------

Repeat Chorus

Part after Chorus - "I`ll speak in riddles so you can understand..." (X2)
e|--------------------------------------
|--------------------------------------
|---------------333333-555-------------
|-333333-222222-xxxxxx-xxx-00000000000-
|-333333-222222-111111-333-00000000000-
E|-333333-222222------------00000000000-

Repeat Chorus 1X
Repeat Verse
Repeat Chorus 2X
Repeat Part after Chorus X2

Bridge
e|-----------------------------------------------------------------
|---------------101010-888-666-888-66-55-101010-888-666-888-66-55-
|-----------------------------------------------------------------
|-0~-----0~-------------------------------------------------------
|-0~-----0~-------------------------------------------------------
E|-0~-----0~-------------------------------------------------------

Bridge Cont.
e|---------------------------------------------------
|-151515151515151515151515-171717171717171717171717-
|---------------------------------------------------
|---------------------------------------------------
|---------------------------------------------------
E|---------------------------------------------------

Bridge Cont. - "The ????? will fade away..."
e|------------------------------------------
|------------------------------------------
|------------------------------------------
|-888888888888888-101010101010101010101010-
|-888888888888888-101010101010101010101010-
E|-888888888888888-101010101010101010101010-

Bridge Cont.
e|-----------------------------------------------
|-----------------------------------------------
|-----------------------------------------------
|-0000-0-0-0000-0-0000-0-0000-0-0-0000-0-0000-0-
|-0000-0-0-0000-0-0000-0-0000-0-0-0000-0-0000-0-
E|-0000-0-0-0000-0-0000-0-0000-0-0-0000-0-0000-0-
PM .... .... .... .... .... ....

Bridge Cont. - "The king`s at..."
e|------------------------------------------
|------------------------------------------
|------------------------------------------
|-888888888888888-101010101010101010101010-
|-888888888888888-101010101010101010101010-
E|-888888888888888-101010101010101010101010-

Bridge Cont.
e|-----------------------------------------------
|-----------------------------------------------
|-----------------------------------------------
|-0000-0-0-0000-0-0000-0-0000-0-0-0000-0-0000-0-
|-0000-0-0-0000-0-0000-0-0000-0-0-0000-0-0000-0-
E|-0000-0-0-0000-0-0000-0-0000-0-0-0000-0-0000-0-
PM .... .... .... .... .... ....

Bridge Cont. - "And I say with a secret..."
e|------------------------------------------
|------------------------------------------
|------------------------------------------
|-888888888888888-101010101010101010101010-
|-888888888888888-101010101010101010101010-
E|-888888888888888-101010101010101010101010-

Bridge Cont. - "Choking as I laugh into..."
e|------------------------------------------
|------------------------------------------
|------------------------------------------
|-888888888888888-101010101010101010101010-
|-888888888888888-101010101010101010101010-
E|-888888888888888-101010101010101010101010-

Ending
e|-----------------------------------------------
|-----------------------------------------------
|-----------------------------------------------
|-0000-0-0-0000-0-0000-0-0000-0-0-0000-0-0000-0-
|-0000-0-0-0000-0-0000-0-0000-0-0-0000-0-0000-0-
E|-0000-0-0-0000-0-0000-0-0000-0-0-0000-0-0000-0-
PM .... .... .... .... .... ....

Ending Cont.
e|-----------------------------------------------
|-----------------------------------------------
|-----------------------------------------------
|-0000-0-0-0000-0-0000-0-0000-0-0-0000-0-0000-0-
|-0000-0-0-0000-0-0000-0-0000-0-0-0000-0-0000-0-
E|-0000-0-0-0000-0-0000-0-0000-0-0-0000-0-0000-0-
PM .... .... .... .... .... ....

Ending Cont.
e|---------------------------
|---------------------------
|---------------------------
|-0000-0-0-0000-0-0000-0-0x-
|-0000-0-0-0000-0-0000-0-0x-
E|-0000-0-0-0000-0-0000-0-0x-
PM .... .... ....