Stop Censorship
 
 

 
 1-9 a b c d e f g h i j k l m n o p q r s t u v w x y z
   Senses Fail - One Eight Seven Tab    

SeNSeS FaiL - oNe eiGHT SeVeN
aLBuM: FRoM THe DePTHS oF DReaMS
TaBBeD By: BReNDeN WHiTeHuRST
DRoP D TuNiNG


iNTRo

GuiTaR 1
|-------0---------0-------------0----------0---------------------------------- 14x
|----3---3--3---3---3--------3----3-3---3----3---3----------------------------
|--22-2----2--44-4----2h4-00--0----0--00-0-----0------------------------------
|-----------------------------------------------------------------------------
|-----------------------------------------------------------------------------
|-----------------------------------------------------------------------------

GuiTaR 2 (come in on 5th time of guitar 1`s part)
|--12--12---12---12---10--10--10---10--9h10p9--9---9---9---9---9---9---9------ 7x
|----10---10---10---10---10--10--10--10------10--10--10--10--10--10--10--10---
|-----------------------------------------------------------------------------
|-----------------------------------------------------------------------------
|-----------------------------------------------------------------------------
|-----------------------------------------------------------------------------

VeRSe
|----------------------------------------------------------------------------- 4x
|-----------------------------------------------------------------------------
|-----------------------------------------------------------------------------
|--0-000000-999999-7/9-5555555555-5-55-5--------------------------------------
|--0-000000-999999-7/9-5555555555-5-55-5--------------------------------------
|--0-000000-999999-7/9-5555555555-5-55-5--------------------------------------
****** ****** * * ********** **
CHoRuS
GuiTaR 1
|----------------------------------------------------------------------------- 2x
|-----------------------------------------------------------------------------
|-11111-111111-77777-77777-----7777--9999--11111111--12121212--666666--777777-
|-xxxxx-xxxxx--xxxxx-xxxxx-----xxxx--xxxx--x-x-x-x---x-x-x-x---xxxxxx--xxxxxx-
|-99999-99999--55555-55555-----5555--7777--9-9-9-9---10101010--444444--555555-
|-----------------------------------------------------------------------------

GuiTaR 2
|-----------------------------------------------------------------------------
|----------------------------------------------------------------------------- 2x
|-----------------------------------------------------------------------------
|--99999-99999--55555-55555--00000-00000--44444-44444-------------------------
|--99999-99999--55555-55555--00000-00000--44444-44444-------------------------
|--99999-99999--55555-55555--00000-00000--44444-44444-------------------------


iNTeRLuDe

|-------0---------0-------------0----------0---------------------------------- 1x
|----3---3--3---3---3--------3----3-3---3----3---3----------------------------
|--22-2----2--44-4----2h4-00--0----0--00-0-----0------------------------------
|-----------------------------------------------------------------------------
|-----------------------------------------------------------------------------
|-----------------------------------------------------------------------------

VeRSe 1
|-----------------------------------------------------------------------------
|-----------------------------------------------------------------------------
|-----------------------------------------------------------------------------
|--0-000000-9999-9------------------------------------------------------------
|--0-000000-9999-9------------------------------------------------------------
|--0-000000-9999-9------------------------------------------------------------
****** ****
VeRSe 2
|----------------------------------------------------------------------------- 3x
|-----------------------------------------------------------------------------
|-----------------------------------------------------------------------------
|------0-000000-999999-7/9-5555555555-5-55-5----------------------------------
|------0-000000-999999-7/9-5555555555-5-55-5----------------------------------
|-7/1--0-000000-999999-7/9-5555555555-5-55-5----------------------------------
****** ****** * * ********** **

CHoRuS
GuiTaR 1
|----------------------------------------------------------------------------- 2x
|-----------------------------------------------------------------------------
|-11111-111111-77777-77777-----7777--9999--11111111--12121212--666666--777777-
|-xxxxx-xxxxx--xxxxx-xxxxx-----xxxx--xxxx--x-x-x-x---x-x-x-x---xxxxxx--xxxxxx-
|-99999-99999--55555-55555-----5555--7777--9-9-9-9---10101010--444444--555555-
|-----------------------------------------------------------------------------

GuiTaR 2
|-----------------------------------------------------------------------------
|----------------------------------------------------------------------------- 2x
|-----------------------------------------------------------------------------
|--99999-99999--55555-55555--00000-00000--44444-44444-------------------------
|--99999-99999--55555-55555--00000-00000--44444-44444-------------------------
|--99999-99999--55555-55555--00000-00000--44444-44444-------------------------


BuiLD

|----------------------------------------------------------------------------- 1x
|-----------------------------------------------------------------------------
|-----------------------------------------------------------------------------
|--444444444444-44------------------------------------------------------------
|--444444444444-44------------------------------------------------------------
|--444444444444-44------------------------------------------------------------
************

GuiTaR 1
|-----------------------------------------------------------------------------
|-----------------------------------------------------------------------------
|-111111111111-12121212-14141414-666666-77777-9--7777-9999-11111111-----------
|-x-x-x-x-x-x--x-x-x-x--x-x-x-x--xxxxxx-xxxxx-x--xxxx-xxxx-x-x-x-x------------
|-9-9-9-9-9-9--10101010-12121212-444444-55555-7--5555-7777-9-9-9-9------------
|-----------------------------------------------------------------------------
4x
|-----------------------------------------------------------------------------
|-----------------------------------------------------------------------------
|--12121212--666666--777777---------------------------------------------------
|--x-x-x-x---xxxxxx--xxxxxx---------------------------------------------------
|--10101010--444444--555555---------------------------------------------------
|-----------------------------------------------------------------------------


|----------------------------------------------------------------------------- 4x
|-----------------------------------------------------------------------------
|--141414141414--12121212--11111111--99--77777777-----------------------------
|--x-x-x-x-x-x---x-x-x-x---x-x-x-x---xx--xxxxxxxx-----------------------------
|--121212121212--10101010--9-9-9-9---77--55555555-----------------------------
|-----------------------------------------------------------------------------

|----------------------------------------------------------------------------- 4x
|-----------------------------------------------------------------------------
|--111111111111-12121212------------------------------------------------------
|--x-x-x-x-x-x--x-x-x-x-------------------------------------------------------
|--9-9-9-9-9-9--10101010------------------------------------------------------
|-----------------------------------------------------------------------------

eND oN...11
x
9 let ring