Stop Censorship
 
 

 
 1-9 a b c d e f g h i j k l m n o p q r s t u v w x y z
   Senses Fail - One Eight Seven Tab    

"ONE EIGHT SEVEN"
By: Senses Fail
(From the [EP] "FROM THE DEPTHS OF DREAMS")
2003 Drive-Thru Records
*************************************************************************************
Tuning - Drop D
Palm Mute - *
Slide - / or
Let Note Ring - ~
*************************************************************************************
GUITAR ONE:

Intro

e|-------0---------0-------------0----------0---------------------------------- 14 x
B|----3---3--3---3---3--------3----3-3---3----3---3----------------------------
G|--22-2----2--44-4----2h4-00--0----0--00-0-----0------------------------------
D|-----------------------------------------------------------------------------
A|-----------------------------------------------------------------------------
D|-----------------------------------------------------------------------------


Verse 1

e|----------------------------------------------------------------------------- 4 x
B|-----------------------------------------------------------------------------
G|-----------------------------------------------------------------------------
D|--0-000000-999999-7/9-5555555555-5-55-5--------------------------------------
A|--0-000000-999999-7/9-5555555555-5-55-5--------------------------------------
D|--0-000000-999999-7/9-5555555555-5-55-5--------------------------------------
****** ****** * * ********** **


Chorus

e|----------------------------------------------------------------------------- 2 x
B|-----------------------------------------------------------------------------
G|-------------------------7777--9999--11111111--12121212--666666--777777------
D|--9999999999-5555555555--xxxx--xxxx--x-x-x-x---x-x-x-x---xxxxxx--xxxxxx------
A|--9999999999-5555555555--5555--7777--9-9-9-9---10101010--444444--555555------
D|--9999999999-5555555555------------------------------------------------------


Interlude

e|-------0---------0-------------0----------0---------------------------------- 1 x
B|----3---3--3---3---3--------3----3-3---3----3---3----------------------------
G|--22-2----2--44-4----2h4-00--0----0--00-0-----0------------------------------
D|-----------------------------------------------------------------------------
A|-----------------------------------------------------------------------------
D|-----------------------------------------------------------------------------




Verse 2 Part One

e|----------------------------------------------------------------------------- 1 x
B|-----------------------------------------------------------------------------
G|-----------------------------------------------------------------------------
D|--0-000000-9999-9--53-------------------------------------------------------
A|--0-000000-9999-9--53-------------------------------------------------------
D|--0-000000-9999-9--53-------------------------------------------------------
****** ****
Part Two
e|----------------------------------------------------------------------------- 3 x
B|-----------------------------------------------------------------------------
G|-----------------------------------------------------------------------------
D|--0-000000-999999-7/9-5555555555-5-55-5--------------------------------------
A|--0-000000-999999-7/9-5555555555-5-55-5--------------------------------------
D|--0-000000-999999-7/9-5555555555-5-55-5--------------------------------------
****** ****** * * ********** **


Chorus

e|----------------------------------------------------------------------------- 2 x
B|-----------------------------------------------------------------------------
G|-------------------------7777--9999--11111111--12121212--666666--777777------
D|--9999999999-5555555555--xxxx--xxxx--x-x-x-x---x-x-x-x---xxxxxx--xxxxxx------
A|--9999999999-5555555555--5555--7777--9-9-9-9---10101010--444444--555555------
D|--9999999999-5555555555------------------------------------------------------


Build

e|----------------------------------------------------------------------------- 1 x
B|-----------------------------------------------------------------------------
G|-----------------------------------------------------------------------------
D|--444444444444-44------------------------------------------------------------
A|--444444444444-44------------------------------------------------------------
D|--444444444444-44------------------------------------------------------------
************


Outro

e|-----------------------------------------------------------------------------
B|-----------------------------------------------------------------------------
G|-111111111111-12121212-14141414-666666-77777--7777-9999-11111111-------------
D|-x-x-x-x-x-x--x-x-x-x--x-x-x-x--xxxxxx-xxxxx--xxxx-xxxx-x-x-x-x--------------
A|-9-9-9-9-9-9--10101010-12121212-444444-55555--5555-7777-9-9-9-9--------------
D|-----------------------------------------------------------------------------
4 x
e|-----------------------------------------------------------------------------
B|-----------------------------------------------------------------------------
G|--12121212--666666--777777---------------------------------------------------
D|--x-x-x-x---xxxxxx--xxxxxx---------------------------------------------------
A|--10101010--444444--555555---------------------------------------------------
D|-----------------------------------------------------------------------------

e|----------------------------------------------------------------------------- 4 x
B|-----------------------------------------------------------------------------
G|--141414141414--12121212--11111111--99--77777777-----------------------------
D|--x-x-x-x-x-x---x-x-x-x---x-x-x-x---xx--xxxxxxxx-----------------------------
A|--121212121212--10101010--9-9-9-9---77--55555555-----------------------------
D|-----------------------------------------------------------------------------

e|----------------------------------------------------------------------------- 4 x
B|-----------------------------------------------------------------------------
G|--111111111111-12121212------------------------------------------------------
D|--x-x-x-x-x-x--x-x-x-x-------------------------------------------------------
A|--9-9-9-9-9-9--10101010------------------------------------------------------
D|-----------------------------------------------------------------------------


End On

e|--------------------- 1 x
B|---------------------
G|--11~----------------
D|---x-----------------
A|---9~----------------
D|---------------------


*************************************************************************************
GUITAR TWO: (Most of GUITAR TWO is the same as GUITAR ONE.)

Intro (Comes In After The Fourth Measure.)

e|--12--12---12---12---10--10--10---10--9h10p9--9---9---9---9---9---9---9------ 8 X
B|----10---10---10---10---10--10--10--10------10--10--10--10--10--10--10--10---
G|-----------------------------------------------------------------------------
D|-----------------------------------------------------------------------------
A|-----------------------------------------------------------------------------
D|-----------------------------------------------------------------------------


Verse 1

e|----------------------------------------------------------------------------- 4 x
B|-----------------------------------------------------------------------------
G|-----------------------------------------------------------------------------
D|--0-000000-999999-7/9-5555555555-5-55-5--------------------------------------
A|--0-000000-999999-7/9-5555555555-5-55-5--------------------------------------
D|--0-000000-999999-7/9-5555555555-5-55-5--------------------------------------
****** ****** * * ********** **


Chorus

e|----------------------------------------------------------------------------- 2 x
B|-----------------------------------------------------------------------------
G|-------------------------7777--9999--11111111--12121212--666666--777777------
D|--9999999999-5555555555--xxxx--xxxx--x-x-x-x---x-x-x-x---xxxxxx--xxxxxx------
A|--9999999999-5555555555--5555--7777--9-9-9-9---10101010--444444--555555------
D|--9999999999-5555555555------------------------------------------------------


Interlude


Verse 2 (Comes In After The First Measure Of Part Two.)

e|-------0---------0-------------0----------0---------------------------------- 2 x
B|----3---3--3---3---3--------3----3-3---3----3---3~---------------------------
G|--22-2----2--44-4----2h4-00--0----0--00-0-----0------------------------------
D|-----------------------------------------------------------------------------
A|-----------------------------------------------------------------------------
D|-----------------------------------------------------------------------------
**** ** ** ***** * * * ** ** * *** **** * * * *


Chorus

e|----------------------------------------------------------------------------- 2 x
B|-----------------------------------------------------------------------------
G|-------------------------7777--9999--11111111--12121212--666666--777777------
D|--9999999999-5555555555--xxxx--xxxx--x-x-x-x---x-x-x-x---xxxxxx--xxxxxx------
A|--9999999999-5555555555--5555--7777--9-9-9-9---10101010--444444--555555------
D|--9999999999-5555555555------------------------------------------------------


Build


Outro

e|-----------------------------------------------------------------------------
B|-----------------------------------------------------------------------------
G|-111111111111-12121212-14141414-666666-77777--7777-9999-11111111-------------
D|-x-x-x-x-x-x--x-x-x-x--x-x-x-x--xxxxxx-xxxxx--xxxx-xxxx-x-x-x-x--------------
A|-9-9-9-9-9-9--10101010-12121212-444444-55555--5555-7777-9-9-9-9--------------
D|-----------------------------------------------------------------------------
4 x
e|-----------------------------------------------------------------------------
B|-----------------------------------------------------------------------------
G|--12121212--666666--777777---------------------------------------------------
D|--x-x-x-x---xxxxxx--xxxxxx---------------------------------------------------
A|--10101010--444444--555555---------------------------------------------------
D|-----------------------------------------------------------------------------

e|----------------------------------------------------------------------------- 4 x
B|-----------------------------------------------------------------------------
G|--141414141414--12121212--11111111--99--77777777-----------------------------
D|--x-x-x-x-x-x---x-x-x-x---x-x-x-x---xx--xxxxxxxx-----------------------------
A|--121212121212--10101010--9-9-9-9---77--55555555-----------------------------
D|-----------------------------------------------------------------------------

e|----------------------------------------------------------------------------- 4 x
B|-----------------------------------------------------------------------------
G|--111111111111-12121212------------------------------------------------------
D|--x-x-x-x-x-x--x-x-x-x-------------------------------------------------------
A|--9-9-9-9-9-9--10101010------------------------------------------------------
D|-----------------------------------------------------------------------------


End On

e|--------------------- 1 x
B|---------------------
G|---11~---------------
D|----x----------------
A|----9~---------------
D|---------------------

(Most of GUITAR TWO is the same as GUITAR ONE)

*************************************************************************************
Tabbed By: Dustin Anderson
*************************************************************************************
(If you have any questions about this tab send them to dba_15@hotmail.com)
*************************************************************************************