Stop Censorship
 
 

 
 1-9 a b c d e f g h i j k l m n o p q r s t u v w x y z
   Senses Fail - One Eight Seven Tab    

Artist: Senses Fail
Song: One Eight Seven
Album: From The Depths Of Dreams
Tabbed By: Marshallskater

Intro (Guitar 1)
|---------0---------------0---------------0---------------0-------|
|-----3-3---3---3-----3-3---3---------3-3---3---3-----3-3---3---3-|
|-2-2---------2---4-4---------2h4-0-0---------0---0-0---------0---|
|-----------------------------------------------------------------|
|-----------------------------------------------------------------|
|-----------------------------------------------------------------|
^2x before singing comes in, 4x before 2nd guitar comes in

Inrto Pt. 2 (Guitar 2)
|12-12-12-12-12-12-12-12-10-10-10-10-10-10-9h10-9-9-9-9-9-9-9-9-9-9-9-9-9-9-9-9-|
|-------------------------------------------------------------------------------|
|-------------------------------------------------------------------------------|
|-------------------------------------------------------------------------------|
|-------------------------------------------------------------------------------|
|-------------------------------------------------------------------------------|

Verse (Both Guitars)
|----------------------------------------------------------------|
|----------------------------------------------------------------|
|----------------------------------------------------------------|
|-7-7-7-7-7-7-7-7-9-9-9-9-9-9-9-9-5-5-5-5-5-5-5-5-5-5-5----5-5-5-|
|-7-7-7-7-7-7-7-7-9-9-9-9-9-9-9-9-5-5-5-5-5-5-5-5-5-5-5----5-5-5-|
|-5-5-5-5-5-5-5-5-7-7-7-7-7-7-7-7-3-3-3-3-3-3-3-3-3-3-3----3-3-3-|
PM--------------------------------------------------- ---

Chorus
|-----------------------------------------------------------------|
|-----------------------------------------------------------------|
|-4-4-4-4-4-4-4-4-----------------7-7-7-7-7-7-7-7-----------------|
|-4-4-4-4-4-4-4-4-5-5-5-5-5-5-5-5-7-7-7-7-7-7-7-7-7-7-7-7-7-7-7-7-|
|-2-2-2-2-2-2-2-2-5-5-5-5-5-5-5-5-5-5-5-5-5-5-5-5-7-7-7-7-7-7-7-7-|
|-----------------3-3-3-3-3-3-3-3-----------------5-5-5-5-5-5-5-5-|