Stop Censorship
 
 

 
 1-9 a b c d e f g h i j k l m n o p q r s t u v w x y z
   Senses Fail - The Ground Folds Tab    

Mxtabs [http:/www.mxtabs.net]
SONG:The Ground Folds (Acoustic)
BAND:Senses Fail
ALBUM:From the Depths of Dreams EP
TABBED BY:Brian D`Aurio and John Riccitelli
*Drop D tuning
This should be near 100% correct.
Please ignore our last attempt at tabbing this song, we had some uhh.. technical difficulties.

++INTRO++
(GUITAR 1)
E|--8p6---6~-8p6---6~10-6--8-6-5
B|------6--------6--------------
G|------------------------------ 2X
D|------------------------------
A|------------------------------
D|-------------------------------

(GUITAR 2)
E|----------------------------------------------------------------
B|----------------------------------------------------------------
G|----------------8-88888-88888-----------------------------------
D|-5-55555-55555--8-88888-88888-8-88888-88888---------------------
A|-5-55555-55555--6-66666-66666-8-88888-88888---------------------
D|-5-55555-55555----------------8-88888-77777---------------------

==============================================================
++VERSE++
(GUITAR 2) *played softer than intro
E|--------------------------------
B|--------------------------------
G|---------------8-88888-88888----
D|-5-55555-55555-6-88888-88888----
A|-5-55555-55555-6-66666-66666----
D|-5-55555-55555------------------
} 2x
E|-------------------------------- /
B|-------------------------------- /
G|-------------------------------- /
D|-8-88888-88888-8-88888-888888--- /
A|-8-88888-88888-8-88888-888888--- /
D|-8-88888-88888-8-88888-888887--- /
==============================================================
++PRECHORUS++
(GUITAR 1)
E|--6------ I E|--8-----10-
B|----6-6-- I B|----6-6----
G|--------- x10I 11th time G|-----------
D|--------- I D|-----------
A|--------- I A|-----------
D|--------- I D|-----------

(GUITAR 2)
E|------------------------------------------
B|------------------------------------------
G|-7-77777-77777-5-55555-55555-3-33333-33333
D|-5-55555-55555-3-33333-33333-1-11111-11111
A|-5-55555-55555-3-33333-33333-1-11111-11111
D|-5-55555-55555-3-33333-33333-1-11111-11111

E|------------------
B|------------------
G|-3-33333/55555555-
D|-1-11111/33333333-
A|-1-11111/33333333-
D|-1-11111/33333333-

=============================================================
++CHORUS++
(GUITAR 1 and/or 2)
E|------------------------------
B|------------------------------
G|------------------------------
D|-8-88888-88888-8-88888-88888--
A|-8-88888-88888-8-88888-88888--
D|-8-88888-88888-8-88888-88888--

E|--------------------------------
B|--------------------------------
G|-8-88888-88888-8-88888—-77777---
D|-8-88888-88888-8-88888—-88888---
A|-8-66666-66666-6-66666—-66666---
D|--------------------------------

E|--------------------------------------
B|--------------------------------------
G|-7-77777-77777-5-55555-55555-3-33333--
D|-5-55555-55555-3-33333-33333-1-11111--
A|-5-55555-55555-3-33333-33333-1-11111--
D|-5-55555-55555-3-33333-33333-1-11111--

E|------------------
B|------------------
G|-3-33333-3-33333--(REPEAT ENTIRE CHORUS)
D|-1-11111-1-11111--
A|-1-11111-1-11111--
D|-1-11111-1-11111--
=============================================================
Repeat Verse
Repeat Prechorus
Repeat Chorus


++BRIDGE++
(GUITAR 1 and/or 2)
E|--------------------------------------
B|--------------------------------------
G|-7-77777-77777-5-55555-55555-3-33333--
D|-5-55555-55555-3-33333-33333-1-11111—-2x
A|-5-55555-55555-3-33333-33333-1-11111--
D|-5-55555-55555-3-33333-33333-1-11111--
2nd time end with
E|------------------
B|------------------
G|-3-33333/55555555-
D|-1-11111/33333333-
A|-1-11111/33333333-
D|-1-11111/33333333-


Piano Part
E|----13----13--15-13----13----15--------
B|-11----11-----------11----11-----------
G|---------------------------------------
D|---------------------------------------
A|---------------------------------------
D|---------------------------------------
Guitar 1 ___
E|------------------------------------------------- |
B|------------------------------------------------- |
G|-3333--5555--77—-8888--7777--55--10101010--33333- |
D|-xxxx--xxxx--xx--xxxx--xxxx--xx---x-x-x-x--xxxxx- |
A|-1111--3333--55--6666--5555--33---8-8-8-8--11111- |
D|------------------------------------------------- |
|
E|----------------- |
B|----------------- |3x
G|10101010--33333-- |play
D|-x-x-x-x--xxxxx-- |lighty
A|-8-8-8-8--11111-- |
D|----------------- |
|
E|------------------------------------------------------------ |
B|------------------------------------------------------------ |
G|-8888-777--55--8888--777--55-10101010--33333-10101010-33333- |
D|-xxxx-xxx--xx--xxxx--xxx--xx--x-x-x-x--xxxxx—-x-x-x-x-xxxxx- |
A|-6666-555--33--6666--555--33--8-8-8-8--11111--8-8-8-8-11111- |
D|------------------------------------------------------------ |
__|
Guitar 2

E|-----------------------------------------------------------
B|-----------------------------------------------------------
G|------------------------------8-88888-88888-8-88888—88888--
D|-8-88888-88888-8-88888-88888--8-88888-88888-8-88888—88888--
A|-8-88888-88888-8-88888-88888--8-66666-66666-6-66666—66666--
D|-8-88888-88888-8-88888-88888—------------------------------

E|-----------------------------------------------------------
B|-----------------------------------------------------------
G|-7-77777-77777-7-77777-77777--3-33333-33333-3-33333-33333--
D|-5-55555-55555-5-55555-55555--1-11111-11111-1-11111-11111--
A|-5-55555-55555-5-55555-55555--1-11111-11111-1-11111-11111--
D|-5-55555-55555-5-55555-55555—-1-11111-11111-1-11111-11111--





=============================================================
++OUTRO++
(Piano Part)
E|-10----10----10---13-----13----13---13-----13----13--13-----13----13--
B|---11----11---------11-----11---------11-----11--------11-----11------
G|-----10----10—-10------10----10—-10-----10-----10—-10---10------10—-10
D|----------------------------------------------------------------------
A|----------------------------------------------------------------------
D|----------------------------------------------------------------------
2x
Piano end on E|-13

(GUITAR 1 and/or 2)
E|---------------------------------------------------------
B|---------------------------------------------------------
G|-7-77777-77777-5-55555-55555-3-33333-33333-3-33333-33333-
D|-5-55555-55555-3-33333-33333-1-11111—11111-1-11111-11111-2x
A|-5-55555-55555-3-33333-33333-1-11111-11111-1-11111-11111-
D|-5-55555-55555-3-33333-33333-1-11111-11111-1-11111-11111-


E|---
End on B|---
G|-3-
D|-1-
A|-1-
D|-1-
=============================================================
Any corrections please email us at either: Movielife187@yahoo.com or jric1088@aol.com