Stop Censorship
 
 

 
 1-9 a b c d e f g h i j k l m n o p q r s t u v w x y z
   Senses Fail - The Ground Folds Tab    

e-------------10----------------------10-----------------
b-------11-------11----11-------11-------11----11--------
g-12-12----12-------12----12-12----12-------12-----------
d--------------------------------------------------------
a--------------------------------------------------------
e--------------------------------------------------------

e-------------13----------------------13-----------------
a-------11-------11----11-------11-------11----11--------
g-10-10----10-------10----10-10----10-------10-----------
d--------------------------------------------------------
a--------------------------------------------------------
e--------------------------------------------------------