Stop Censorship
 
 

 
 1-9 a b c d e f g h i j k l m n o p q r s t u v w x y z
   Senses Fail - The Irony Of Dying On Your Birthday Tab    

Band: Senses Fail
Song: The Irony of Dying on Your Birthday
Album: Let It Enfold You
Tuning: Standard Drop D
Tabber: Roger Durivage
Email: rufio_rd@hotmail.com

This tab like my others is 100% correct, this is as good as it gets.
PLEASE RATE!!!!

------------------------------------------------------------------------------
Guitar One - Right Speaker
------------------------------------------------------------------------------

Intro |then guitar 2| this part (2X)
e|----------------------|-------------|---------------------------------------
|----------------------|-------------|---------------------------------------
|-1212-1212-1212-12-13-|-------------|-1212-1212-1212-12-13--77-77-77-7-8-8--
|-x-x--x-x--x-x--x--x--|-------------|-x-x--x-x--x-x--x--x---xx-xx-xx-x-x-x--
|-1010-1010-1010-10-11-|-------------|-1010-1010-1010-10-11--55-55-55-5-6-6-
E|----------------------|-------------|---------------------------------------

Intro Cont. - then this (2X)
e|-------------------------------------------------------
|-------------------------------------------------------
|-1212121212121212-13131313131313-777777-88-10101010-10-
|-x-x-x-x-x-x-x-x--x-x-x-x-x-x-x--xxxxxx-xx-x-x-x-x--x--
|-1010101010101010-11111111111111-555555/66/8-8-8-8--8-
E|-------------------------------------------------------

Verse - "I just know, we don`t astound in time..." (X2)
e|---------------------------------------------------------------------
|---------------------------------------------------------------------
|---------------------------------------------------------------------
|-1010-1010-1010-1010-1010-1010-1010-1010--66-66-66-66-66-66-66666666-
|-1010-1010-1010-1010-1010-1010-1010-1010--66-66-66-66-66-66-66666666-
E|-1010-1010-1010-1010-1010-1010-1010-1010/-66-66-66-66-66-66-66666666-
PM . . . . . . . . . . . . . . . . .. .. .. .. .. .. ........

Pre Chorus - "So follow, your bliss, and destroy, the beauty."
e|--------------------------------------------------
|--------------------------------------------------
|--------------------------------------------------
|-1010-5h7-8-6-66-0h1h3-1-10-1010-5h7-8-6-66-5~-6~-
|-1010-------6-66---------10-1010-------6-66-5~-6~-
E|-1010-------6-66---------10-1010-------6-66-5~-6~-

Chorus - "I`ll lock myself alone and I will..."
e|--------------------------------------------------
|--------------------------------------------------
|-8888888-107-8-88888888-1212121212121212-7777-5-7-
|-xxxxxxx-x-x-x-xxxxxxxx-x-x-x-x-x-x-x-x--xxxx-x-x-
|-66666668-5-6-66666666-1010101010101010-5555-3-5-
E|--------------------------------------------------

Repeat Verse
Repeat Pre-Chorus

2nd Chorus - "I`ll lock myself alone and I will..."
e|--------------------------------------------------
|--------------------------------------------------
|-8888888-107-8-88888888-1212121212121212-7777-5-7-
|-xxxxxxx-x-x-x-xxxxxxxx-x-x-x-x-x-x-x-x--xxxx-x-x-
|-66666668-5-6-66666666-1010101010101010-5555-3-5-
E|--------------------------------------------------

2nd Chorus Cont. - "And maybe I don`t understand..."
e|--------------------------------------------
|--------------------------------------------
|-8888888-107-8-88888888-1212121212121212-7~-
|-xxxxxxx-x-x-x-xxxxxxxx-x-x-x-x-x-x-x-x--x~-
|-66666668-5-6-66666666-1010101010101010-5~-
E|--------------------------------------------

Bridge - "Colors blind, the eyes, self defend..."
e|-------------------------------------------
|-------------------------------------------
|-------------------------------------------
|-1010101010-10--66666-6--11111-1-333-333-3-
|-1010101010-10--66666-6--11111-1-333-333-3-
E|-1010101010-10-66666-6-11111-1-333-333-3-
PM . . . . . . ..... . ..... . ... ... .

Bridge Cont.
e|-------------------------------------------
|-------------------------------------------
|-------------------------------------------
|-1010101010-10--66666-6--11111-1-333-333-3-
|-1010101010-10--66666-6--11111-1-333-333-3-
E|-1010101010-10-66666-6-11111-1-333-333-3-
PM . . . . . . ..... . ..... . ... ... .

Bridge Cont.
e|-----------------------------------------------------------
|-----------------------------------------------------------
|--------------------------------------1212-1212-1212-12-13-
|-1010-1010-66-66-11-11-33-33-33-33-33-1010-1010-1010-10-11-
|-1010-1010-66-66-11-11-33-33-33-33-33-1010-1010-1010-10-11-
E|-1010-1010-66-66-11-11-33-33-33-33-33-1010-1010-1010-10-11-

Bridge Cont.
e|-------------------------------------------
|-------------------------------------------
|-77-77-77-7-8-8----------------------------
|-55-55-55-5-6-6--11-11-11-11-33-33-3333333-
|-55-55-55-5-6-6--11-11-11-11-33-33-3333333-
E|-55-55-55-5-6-6-11-11-11-11-33-33-3333333-

Repeat Chorus

3rd Chorus - (X2)
e|---------------------------------------------------------
|---------------------------------------------------------
|-1212121212-10-888-1313131313-12-101010-1212121212121212-
|-x-x-x-x-x--x--xxx-x-x-x-x-x--x--x-x-x--x-x-x-x-x-x-x-x--
|-1010101010-8--666-1111111111-10-8-8-8--1010101010101010-
E|---------------------------------------------------------

3rd Chorus
e|-----------
|-----------
|-77777-5-7-
|-xxxxx-x-x-
|-55555-3-5-
E|-----------

End on this:
e|----
|----
|-8--
|-x--
|-6-
E|----


---------------------------------------------------------------------
Guitar Two - Left Speaker
---------------------------------------------------------------------

Intro |Guitar One|then guitar 2 |Repeat this (4X)
e|----|----------|--------------|--------------------------------------
|----|----------|--------------|--------------------------------------
|----|----------|-88-88-88-77--|--1212-1212-1212-1313--88-88-88-77-8--
|----|----------|-66-66-66-66--|--1010-1010-1010-1111--66-66-66-66-6--
|----|----------|-66-66-66-66--|--1010-1010-1010-1111--66-66-66-66-6--
E|----|----------|-66-66-66-66--|--1010-1010-1010-1111--66-66-66-66-6-

Verse - "I just know, we don`t astound in time..." (X2)
e|---------------------------------------------------------------------
|---------------------------------------------------------------------
|---------------------------------------------------------------------
|-1010-1010-1010-1010-1010-1010-1010-1010--66-66-66-66-66-66-66666666-
|-1010-1010-1010-1010-1010-1010-1010-1010--66-66-66-66-66-66-66666666-
E|-1010-1010-1010-1010-1010-1010-1010-1010/-66-66-66-66-66-66-66666666-
PM . . . . . . . . . . . . . . . . .. .. .. .. .. .. ........

Pre Chorus - "So follow, your bliss, and destroy, the beauty."
e|--------------------------------------------------
|--------------------------------------------------
|--------------------------------------------------
|-1010--------6-66-------10-1010--------6-66-5~-6~-
|-1010-6h8-10-6-66-6h8-6-10-1010-6h8-10-6-66-5~-6~-
E|-1010--------6-66-------10-1010--------6-66-5~-6~-

Chorus - "I`ll lock myself alone and I will..." (X2)
e|-----------------------------------------------
|-----------------------------------------------
|----------12121212------8888-------------------
|-10101010-10101010-6666-6666-11111111-88888888-
|-10101010-10101010-6666-6666-11111111-88888888-
E|-10101010-10101010-6666-6666-11111111-88888888-

Repeat Verse
Repeat Pre-Chorus

2nd Chorus - "I`ll lock myself alone and I will..."
e|-----------------------------------------------
|-----------------------------------------------
|----------12121212------8888-------------------
|-10101010-10101010-6666-6666-11111111-88888888-
|-10101010-10101010-6666-6666-11111111-88888888-
E|-10101010-10101010-6666-6666-11111111-88888888-

2nd Chorus Cont. - "And maybe I don`t understand..."
e|-----------------------------------------
|-----------------------------------------
|----------12121212------8888-------------
|-10101010-10101010-6666-6666-11111111-8~-
|-10101010-10101010-6666-6666-11111111-8~-
E|-10101010-10101010-6666-6666-11111111-8~-

Bridge - "Colors blind, the eyes, self defend..." (X2)
e|---------------------------------------------------------------
|---------------------------------------------------------------
|-88-77---88-77---5h7--88-77---88-77---5h7--88-77---88-77---5h7-
|-------8-------8------------8-------8------------8-------8-----
|---------------------------------------------------------------
E|---------------------------------------------------------------
PM .. .. . .. .. . .. .. . .. .. . .. .. . .. .. .

Bridge Cont.
e|----------------------
|----------------------
|-1010101010-888-7h8p7-
|----------------------
|----------------------
E|----------------------

Repeat Bridge WITHOUT PM(palm mute)(X2)
Repeat Chorus 2X (each chorus being 2 X each)

Ending of 4th chorus
e|-----------------
|-----------------
|-----------------
|-888-8-888-8-10-
|-888-8-888-8-10-
E|-888-8-888-8-10-
PM ... ...