Stop Censorship
 
 

 
 1-9 a b c d e f g h i j k l m n o p q r s t u v w x y z
   Session Nine - Lost Control Tab    

Title: Lost Control
By: Session Nine
Written By: Session Nine
Transcribed By: Chris Williams (Aphonic369)


e|----------0---------|-----------0------------|
B|.-----4-----4---4--.|.--------4---4---4-----.|
G|----6---6-----6-----|-------6-------6--------| Intro: Repeat 2x`s
D|--6-----------------|-----6------------------|
A|.------------------.|.--0-------------------.|
E|--------------------|------------------------|



e|-------------------|----------------|----------------|
B|.-----------------.|----------------|----------------|
G|---6---------------|---6-------9----|--6-------------| Chorus
D|---6---7---2-------|---6---7---9----|--6---7---9-----|
A|.--4---7---2------.|---4---7---7----|--4---7---9-----|
E|---4---5---0-------|---4---5--------|--4---5---7-----|


e|----------------------------------|
B|.--------------------------------.|
G|----------------------------------| Verse
D|-----------4---6------------------|
A|.--6---2---2---4-----------------.|
E|---4---0--------------------------|


Repeat 2x`s
e|-------------------|----------------|----------------|
B|.-----------------.|----------------|----------------|
G|---6---------------|---6-------9----|--6-------------|Chorus
D|---6---7---2-------|---6---7---9----|--6---7---9-----|
A|.--4---7---2------.|---4---7---7----|--4---7---9-----|
E|---4---5---0-------|---4---5--------|--4---5---7-----|


e|------------------------------------|
B|.----------------------------------.|
G|------------------------------------| Verse
D|------------4---6-------------------|
A|.----6---2---2---4-----------------.|
E|----4---0---------------------------|

4x`s
e|------------------------------------|
B|.----------------------------------.|
G|------------------------------------| Verse
D|------------4---6-------------------|
A|.---6---2---2---4------------------.|
E|----4---0---------------------------|
p.m.______________|


e|-------------------|
B|.-----------------.|
G|---6---------------|
D|---6---7---2-------|
A|.--4---7---2------.|
E|---4---5---0-------|


e|-------------------|----------------|----------------|
B|.-----------------.|----------------|----------------|
G|---6---------------|---6-------9----|--6-------------|Chorus
D|---6---7---2-------|---6---7---9----|--6---7---9-----|
A|.--4---7---2------.|---4---7---7----|--4---7---9-----|
E|---4---5---0-------|---4---5--------|--4---5---7-----|



e|-----------------|-------------|--------------|
B|-----------------|.-----------.|--------------|
G|--9---6---9---6--|-------------|--------------| Solo (rhythm)
D|--9---6---9---6--|---4---7-----|---4---7---9--|
A|--7---4---7---4--|.--4---7----.|---4---7---9--|
E|--7---4---7---4--|---2---5-----|---2---5---7--|



Song Structure:

Intro 2x`s
Chorus 4`xs
Verse 4x`s
Chorus 4x`s
Verse 6x`s
Chorus 6x`s
Solo 1 time