Stop Censorship
 
 

 
 1-9 a b c d e f g h i j k l m n o p q r s t u v w x y z
   Skarhead - Kings At Crime Tab    

-------------------------------------------------------------------------------
KINGS AT CRIME - Skarhead
-------------------------------------------------------------------------------

This is one of my fav. Skarhead songs apart from `I wont change`, neways they a class band n heres my version of this song enjoy.
p.s. check out my bands site at www.aimforthehead.cjb.net


Drums...
|---------------|---------------------|-------------------------------|
|---------------|---------------------|-------------------------------|
|---------------|---------------------|-------------------------------|
|-5------8--7-|-5------8--7--8--7-|-5------8--7----5------8--7-|
|-3------6--5-|-3------6--5--6--5-|-3------6--5----3------6--5-|
|---------------|---------------------|-------------------------------|

|--------------------------------------|
|---------play-12-times-------------|
|----------------------------------------|
|-------------------8-8-8-7-7-7-5-5-|
|-5/7-7-7-7-7-7--6-6-6-5-5-5-3-3-|
|-3/5-5-5-5-5-5----------------------|
pm-----------------------

|---------------|---------------------|-------------------------------|
|---------------|---------------------|-------------------------------|
|---------------|---------------------|-------------------------------|
|-5------8--7-|-5------8--7--8--7-|-5------8--7----5------8--7-|
|-3------6--5-|-3------6--5--6--5-|-3------6--5----3------6--5-|
|---------------|---------------------|-------------------------------|

|----------------------------------------|
|-----------play-12-times------------|
|---------------------------------------|
|-------------------8-8-8-7-7-7-5-5-|
|-5/7-7-7-7-7-7--6-6-6-5-5-5-3-3-|
|-3/5-5-5-5-5-5----------------------|
pm-----------------------

|---------------|---------------------|-------------------------------|
|---------------|---------------------|-------------------------------|
|---------------|---------------------|-------------------------------|
|-5------8--7-|-5------8--7--8--7-|-5------8--7----5------8--7-|
|-3------6--5-|-3------6--5--6--5-|-3------6--5----3------6--5-|
|--------------|----------------------|-------------------------------|

Bass:
|-----------------------------------------|
|----------play-2-times----------------|
|---------------------6-6-6-5-5-5-3-3-|
|-3/5-5-5-5-5-5------------------------|

|----------------------------------------------------------|
|----------------------------------------------------------|
|----------------------------------------------------------|
|------------------------------------------------x---------
|-5-/-12~~~-------------------feedback--------x----|
|---------------------------------------------------------|


|-------------------------------------------------|------------------------------|
|--------------play-3-times-------------------|-------------------------------|
|----------------------5-5-5-5-----------------|---------------------5-5-5-5-|
|-5-5-5-5-7-7-7-7--5-5-5-5---5------8--7-|-5-5-5-5-7-7-7-7--5-5-5-5-|
|-5-5-5-5-7-7-7-7--3-3-3-3---3------6--5-|-5-5-5-5-7-7-7-7--3-3-3-3-|
|-3-3-3-3-5-5-5-5---------------------------|-3-3-3-3-5-5-5-5------------|


|--------------------------------------|
|-----------play-3-times------------|
|--------------------------------------|
|-5------8--7----5------8--7--8--7-|
|-3------6--5----3------6--5--6--5-|
|--------------------------------------|

|-------------------------------|
|-------------------------------|
|-------------------------------|
|-5------8--7----5------8--7-|
|-3------6--5----3------6--5-|
|-------------------------------|