Stop Censorship
 
 

 
 1-9 a b c d e f g h i j k l m n o p q r s t u v w x y z
   Skye Sweetnam - Billy S Tab    

E-1-1-1-1------------------------
A-3-3-3-3-1-1-1-1-3-3-3-3-5-5-5-5
D-3-3-3-3-3-3-3-3-5-5-5-5-7-7-7-7 Play 4 Times
G---------3-3-3-3-5-5-5-5-7-7-7-7
B--------------------------------
E--------------------------------

E-1-1-1-1---------3-3-3-3---------
A-3-3-3-3-3-3-3-3-5-5-5-5-1-1-1-1
D-3-3-3-3-5-5-5-5-5-5-5-5-3-3-3-3 Play 3 Times then play...
G---------5-5-5-5---------3-3-3-3
B--------------------------------
E--------------------------------

E---------------------------------
A-6-6-6-6-6-6-6-6-6-6-6-6-6-6-6-6-
D-8-8-8-8-8-8-8-8-8-8-8-8-8-8-8-8-
G-8-8-8-8-8-8-8-8-8-8-8-8-8-8-8-8-
B---------------------------------
E---------------------------------

E-1-1-1-1------------------------
A-3-3-3-3-1-1-1-1-3-3-3-3-5-5-5-5
D-3-3-3-3-3-3-3-3-5-5-5-5-7-7-7-7 Play 3 Times
G---------3-3-3-3-5-5-5-5-7-7-7-7
B--------------------------------
E--------------------------------

E-1-1-1-1----------
A-3-3-3-3-1-1-1-1-3
D-3-3-3-3-3-3-3-3-5
G---------3-3-3-3-5
B------------------
E------------------

E-1-1-1-1---------3-3-3-3--------
A-3-3-3-3-3-3-3-3-5-5-5-5-1-1-1-1
D-3-3-3-3-5-5-5-5-5-5-5-5-3-3-3-3 Play 3 Times
G---------5-5-5-5---------3-3-3-3
B--------------------------------
E--------------------------------

E---------------------------------
A-6-6-6-6-6-6-6-6-6-6-6-6-6-6-6-6-
D-8-8-8-8-8-8-8-8-8-8-8-8-8-8-8-8-
G-8-8-8-8-8-8-8-8-8-8-8-8-8-8-8-8-
B---------------------------------
E---------------------------------

E-1-1--1-1--1-1--1-1-------------------
A-3-3--3-3--3-3--3-3-------------------
D-3-3--3-3--3-3--3-3-------------------
G-------------------------------------- Play 3 Times
B--------------------------------------
E--------------------------------------

E-1-1-1-1-1-1-1-1-1-1-1-1-1-1-1-1
A-3-3-3-3-3-3-3-3-3-3-3-3-3-3-3-3
D-3-3-3-3-3-3-3-3-3-3-3-3-3-3-3-3
G-------------------------------- play 2 Times
B--------------------------------
E--------------------------------

E-1-1-1-1---------3-3-3-3--------
A-3-3-3-3-3-3-3-3-5-5-5-5-1-1-1-1
D-3-3-3-3-5-5-5-5-5-5-5-5-3-3-3-3 Play 3 Times
G---------5-5-5-5---------3-3-3-3
B-------------------------------
E--------------------------------

E--------------------------------
A-6-6-6-6-6-6-6-6-6-6-6-6-6-6-6-6-
D-8-8-8-8-8-8-8-8-8-8-8-8-8-8-8-8-
G-8-8-8-8-8-8-8-8-8-8-8-8-8-8-8-8-
B---------------------------------
E---------------------------------


E-1-1-1-1---------3-3-3-3--------
A-3-3-3-3-3-3-3-3-5-5-5-5-1-1-1-1
D-3-3-3-3-5-5-5-5-5-5-5-5-3-3-3-3 Play 3 Times
G---------5-5-5-5---------3-3-3-3
B--------------------------------
E--------------------------------

E---------------------------------
A-6-6-6-6-6-6-6-6-6-6-6-6-6-6-6-6-
D-8-8-8-8-8-8-8-8-8-8-8-8-8-8-8-8-
G-8-8-8-8-8-8-8-8-8-8-8-8-8-8-8-8-
B---------------------------------
E---------------------------------


E-1-1-1-1---------3-3-3-3----------
A-3-3-3-3-3-3-3-3-5-5-5-5-1-1-1-1
D-3-3-3-3-5-5-5-5-5-5-5-5-3-3-3-3 Play 3 Times
G---------5-5-5-5---------3-3-3-3
B--------------------------------
E--------------------------------

E--------------------------------------------
A-6-6-6-6-6-6-6-6-6-6-6-6-6-6-6-6-
D-8-8-8-8-8-8-8-8-8-8-8-8-8-8-8-8- Plat this twice
G-8-8-8-8-8-8-8-8-8-8-8-8-8-8-8-8-
B---------------------------------
E---------------------------------