Stop Censorship
 
 

 
 1-9 a b c d e f g h i j k l m n o p q r s t u v w x y z
   Slipknot - Eyeless Tab    

Song: Eyeless
Band: Slipknot

drop b

|-12-12-12-12-12-12-12-12-12-12-12-12-|
|-17-17-17-16-17-17-16-16-16-16-16-16-|
|-------------------------------------|
|-------------------------------------|
|-------------------------------------|
|-------------------------------------|


B |-0-0-1-0-6-0-6-6-0-0-8-8-0-0-8-8-|
F#|-0-0-1-0-6-0-6-6-0-0-8-8-0-0-8-8-|
B |-0-0-1-0-6-0-6-6-0-0-8-8-0-0-8-8-|
***********
Pm -- - --


E |-9-9-9-9-9-9-8-9-9-9-|
B |-8-8-8-8-8-8-7-8-8-8-|
F#|-7-7-7-7-7-7-6-7-7-7-|

The slow part:

F#|-0-0-0-----------0-1-0--0-1-0-|
B |-0-0-0-6^/p/1--0-1-0--0-1-0-|



B |-0--4--1-2-|
F#|-0--4--1-2-|
B |-0--4--1-2-|