Stop Censorship
 
 

 
 1-9 a b c d e f g h i j k l m n o p q r s t u v w x y z
   Social Distortion - Sick Boy Tab    

SOCIAL DISTORTION - SICK BOY
Tabbed By aglobalcasualty

100% PERFECT TAB UNLESS YOU CANT READ TABS
LISTEN TO SONG ITS SOUNDS GREAT PLAYING WITH IT.
RATE THIS TAB!!!


KEY:
x = Scratch


INTRO (Part 1)
e|---------------------------------------------------------|
b|---------------------------------------------------------|
g|---------------------------------------------------------|
d|--------------6-6-6-6-8-8--------------------------------|
a|------6-6-6-6-4-4-4-4-6-6-------------------------------|
E|------4-4-4-4--------------------------------------------|


INTRO (Part 2)
e|---------------------------------------------------------|
b|---------------------------------------------------------|
g|---------------------------------------------------------|
d|-------------4-----6-------------------------------------|
a|-------4-----6-----8-------------------------------------|
E|-------6-------------------------------------------------|


SOLO
e|--864-444 444-86 6-864-444-444---864-444-444-86-6-864-44-8-11-13-------|
b|-------------------------------4--------------------------|
g|----------------------------------------------------------|
d|----------------------------------------------------------|
a|----------------------------------------------------------|
E|----------------------------------------------------------|



BRIDGE
e|----------------------------------------------------------|
b|----------------------------------------------------------|
g|----------------------------------------------------------| Do this 9 times
d|---------------------6-6-6-6-8-8--------------------------|
a|----6-6x--6-6x-6-6x-4-4-4-4-6-6---------------------------|
E|----4-4x--4-4x-4-4x---------------------------------------|


CHORUS
e|-----------------------------------------------------------|
b|-----------------------------------------------------------|
g|-----------------------------------------------------------|
d|--------------6-6-6--8-------------------------------------| Do this 4 times
a|----6-6-6-6-6-4-4-4--6-------------------------------------|
E|----4-4-4-4-4----------------------------------------------|


SOLO
e|--864-444 444-86 6-864-444-444---864-444-444-86-6-864-44-8-11-13-------|
b|-------------------------------4--------------------------|
g|----------------------------------------------------------|
d|----------------------------------------------------------|
a|----------------------------------------------------------|
E|----------------------------------------------------------|


BRIDGE
e|----------------------------------------------------------|
b|----------------------------------------------------------|
g|----------------------------------------------------------| Do this 9 times
d|---------------------6-6-6-6-8-8--------------------------|
a|----6-6x--6-6x-6-6x-4-4-4-4-6-6---------------------------|
E|----4-4x--4-4x-4-4x---------------------------------------|


CHORUS
e|-----------------------------------------------------------|
b|-----------------------------------------------------------|
g|-----------------------------------------------------------|
d|--------------6-6-6--8-------------------------------------| Do this Until "Outro"
a|----6-6-6-6-6-4-4-4--6------------------------------------ |
E|----4-4-4-4-4----------------------------------------------|


FILL IN (High Pitched, Solo, Fill In) <---------------------------------------THIS IS OPTIONAL YOU CAN
e|----------------4-----------4--------------4----------------| HEAR IT IN THE SONG
b|----4-4-4-4-4-4--4-4-4-4-4---4-4-4-4-4-4------------------ |
g|------------------------------------------------------------|
d|------------------------------------------------------------|
a|------------------------------------------------------------|
E|------------------------------------------------------------|


OUTRO
e|------------------------------------------------------------|
b|------------------------------------------------------------|
g|------------------------------------------------------------|
d|------8-8-8-8-6-6------------------------------------------ |
a|------6-6-6-6-4-4--6--------------------------------------- |
E|-------------------4---------------------------------------- | Fade Out / Ring