Stop Censorship
 
 

 
 1-9 a b c d e f g h i j k l m n o p q r s t u v w x y z
   Softbreed - Now You Are Dying Tab    



SoftBreed - Now You Are Dying
Por: Fabian Jadue



Intro 1 x3

----------15-------------------------17-15------------------15-----------------------17-18-15----18-17-15----15-17-18----------18-17---15-17-18----18-17-15-------------
------------------------------------------------------------------------------------------------------------------------------------------------------------------------------------------------------------------------------------------------------------------------------------------------------------------------------------------------

-------------17-17--15--------------------------------------------------------------
18-17-15----------------------------------------------------------------------------
------------------------------------------------------------------------------------------------------------------------------------------------------------------------------------------------------------------------------------------------------------------------------------------------------------------------------------------------


Intro 2 1 ves y luego vuelve a la Intro 1

--------------------------------17-15------------------------------17-17-15---------
--15-17-18 -----------15-17-18--------15-17-18----------15-17-18--------------------
---------------17-16-----------------------------17-16------------------------------------------------------------------------------------------------------------------------------------------------------------------------------------------------------------------------------------------------------------------------------------------

Verse 1 x2

--------------------------------------------------------------------------------------------------------------------------------------------------------------------------------------------------------------------------------------------------------------9---9--- 9--10-11-12-----9---9---12--11-10-9----------------------------------------9---9----9--10-11-12-----9---9---12--11-10-9----------------------------------------7---7----7--8---9-10-----7---7---10---9--8-7------------------------------------

-----------------------------------------------------------------------------------------------------------------------------------------------------------------------------------------------------------------------------------------------------------------4---4----4--5-6-7-----4---4---7--6-5-4----------------------------------------------4---4----4--5-6-7-----4---4---7--4-3-4----------------------------------------------2---2----2--3-4-5-----2---2---5--4-3-2-----------------------------------------


Verse 3 x4

------------------------------------------------------------------------------------
------------------------------------------------------------------------------------
------------------------------------------------------------------------------------
-7--7--------------------------7--7-------------------------------------------------
-9--9---7-9-7-9-7-9------------9--9----7-9-7-9-7-9-7-9-----------------------------
-9--9------------------7-------9--9------------------------9------------------------



------------------------------------------------------------------------------------
------------------------------------------------------------------------------------
------------------------------------------------------------------------------------
-5--5--------------------------5--5-------------------------------------------------
-7--7---5-7-5-7-5-7------------7--7----5-7-5-7-5-7-5-7------------------------------
-7--7---------------5----------7--7---------------------7---------------------------




Coro x2 (rapido)
------------------------------------------------------------------------------------
------------------------------------------------------------------------------------
------------------------------------------------------------------------------------
--7-7--5-5--7-7--10-10--7-7--3-3--5-5--7-7--7-7--5-5--7-7--10-10--7-7-5--5--7-7-----
--9-9--7-7--9-9--12-12--9-9--5-5--7-7--9-9--9-9--7-7--9-9--12-12--9-9-7--7--9-9-----
--9-9--7-7--9-9--12-12--9-9--5-5--7-7--9-9--9-9--7-7--9-9--12-12--9-9-7--7--9-9-----

Verse 1
-------------------------------------------------------------------------------------------------------------------------------------------------------------------------------------------------------------------------------------------------------------------9---9--- 9--10-11-12-----9---9------21-20-19----------------------------------------9---9----9--10-11-12-----9---9------------------19-17-------------------------------7---7----7---8--9--10----7---7-------------------------17-15-----------------

Luego la segunda vez se hace de vuelta la escala empezando por el espacio 15. La segunda parte del verse 1 se hace normal.