Stop Censorship
 
 

 
 1-9 a b c d e f g h i j k l m n o p q r s t u v w x y z
   Sonata Arctica - Champagne Bath Tab    

Tune down 1/2 step

Intro
e:-------------------------------------------------------------------------|
B:-------------------------------------------------------------12h13h16----|
G:-------------------------------------------11----11h14p11h14-----------9-|
D:-------------------------10----10h13p10h13----13-----------------------9-|
A:----------9----9h12p9h12----12-----------------------------------------7-|
E:--11p7p11---11-----------------------------------------------------------|





e:-------------------------------------------------------------------------|
B:------------10h12p10p8---------------------------------------------------|
G:--7---9----------------11p9p8--------------------------------------------|
D:--7---9-----------------------10p9p7----------5---4---5------7---6---7---|
A:--5---7------------------------------12p10p9--5---5---5------7---7---7---|
E:----------------------------------------------3---2---3------5---4---5---|





e:-------------------------------------------------------------------------|
B:------------------10h12p10-------------------------12p10p8---------------|
G:----------9h11h12----------12p10p9--4----------------------11p9p8--------|
D:---7h9h11---------------------------4---1---2---------------------10p9p7-|
A:------------------------------------2---2---2----------------------------|
E:--------------------------------------------0----------------------------|





e:------------------------------------------------------------------------1|
B:------------------------------------------------------10h12p10-----------|
G:----------------------------------------------9h11h12----------12p11p9---|
D:---------5---4---5------7---6---7------7h9h10---------------------------9|
A:12p10p9--5---5---5------7---7---7---------------------------------------9|
E:---------3---2---3------5---4---5---------------------------------------7|




not sure about this part.................................................
e:9p17p1514---------------------------------------------------------------|
B:-----------19p17p1513-15p13p1210---------------------------------------|
G:-----------------------------------14p12p119-16p14p1211----------------|
D:----------------------------------------------------------14p12p119-14p1|
A:-------------------------------------------------------------------------|
E:-------------------------------------------------------------------------|




................ Verse *2 Pre-Chorus
e:------------------|--------------------------------|---------------------|
B:------------------|--------------------------------|---------------------|
G:------------------|--9--------4--------7-----------|--5---------5---4---2|
D:2p119------------|--9--------4--------7--------7--|--5---------5---4---2|
A:-------12p10p97--|--7--------2--------5--------7--|--3--3-3-3--3---2---0|
E:------------------|-----------------------------5--|---------------------|
pm.....




e:-------------------------------------------------------------------------|
B:-------------------------------------------------------------------------|
G:---------2------2---------------------------------------------5---------5|
D:---------2------2---------------------------------------------5---------5|
A:--0-0-0--0--0-0-0--------5h7p5-------2--------5h7p5-------2---3--3-3-3--3|
E:-------------------0-0-0-------0-0-0-0--0-0-0-------0-0-0-0--------------|
pm..... pm.....pm..... pm.... pm..... pm.... pm.....



Chorus
e:-------------------------|-----------|----------------|------------------|
B:-------------------------|-----------|----------------|------------------|
G:---4---2--------4--------|---Verse---|---Pre-chorus---|--7---------------|
D:---4---2--------4--------|-----------|----------------|--7---------------|
A:---2---0--------2--------|-----------|----------------|--5---------------|
E:-------------------------|-----------|----------------|------------------|





e:-------------------------------------------------------------------------|
B:-------------------------------------------------------------------------|
G:-7------------7---6---4--------------------------------------------------|
D:-7------------7---7---4--------5--------------------------2-----4-----2--|
A:-5------------5---4---2--------5--------2-2-2-4-2-2-5-2-2---2-2---2-2---2|
E:-------------------------------3-----------------------------------------|
pm.................................




e:-------------------------------------------------------------------------|
B:-------------------------------------------------------------------------|
G:----------------7----------------7------------7---6---4-----------------4|
D:----------------7----------------7------------7---7---4--------5--------4|
A:-2-5-2-2-4-2-2--5----------------5------------5---4---2--------5--------2|
E:---------------------------------------------------------------3---------|
..............



Pre-chorus 2
e:------------|-----------|------------------------------------------------|
B:------------|-----------|------------------------------------------------|
G:------------|---Verse---|--5--------5---4---2--------2------2------------|
D:------------|-----------|--5--------5---4---2--------2------2------------|
A:------------|-----------|--3--3-3-3-3---2---0--0-0-0-0--0-0-0--------5h7p|
E:------------|-----------|--------------------------------------0-0-0-----|
pm..... pm..... pm.....pm.....




e:-------------------------------------------------------------------------|
B:-------------------------------------------------------------------------|
G:--------------------------------5--------5---4---2--------2------2--4----|
D:--------------------------------5--------5---4---2--------2------2--4----|
A:5-------2--------5h7p5-------2--3--3-3-3-3---2---0--0-0-0-0--0-0-0--2-2-2|
E:--0-0-0-0--0-0-0-------0-0-0-0-------------------------------------------|
pm.... pm..... pm.... pm..... pm..... pm..... pm..



Chorus 2
e:-------------------------------------------|-----------------------------|
B:-------------------------------------------|-----------------------------|
G:-------------------------------------------|--7--------------------7-----|
D:-------------------------------------------|--7--------------------7-----|
A:-2-2-2-2-2-2-2-2-2-2-2-2-2-2-2-2-2-2-2-2-2-|--5--------------------5-----|
E:-------------------------------------------|-----------------------------|
..........................................




e:-------------------------------------------------------------------------|
B:-------------------------------------------------------------------------|
G:-------7---6---4---------------------------------------------------------|
D:-------7---7---4------------5-------------------------------2-----4-----2|
A:-------5---4---2------------5-------------2-2-2-4-2-2-5-2-2---2-2---2-2--|
E:----------------------------3--------------------------------------------|
pm...............................




e:-------------------------------------------------------------------------|
B:-------------------------------------------------------------------------|
G:------------------7--------------------7-------------7---6---4-----------|
D:------------------7--------------------7-------------7---7---4-----------|
A:-2-2-5-2-2-4-2-2--5--------------------5-------------5---4---2-----------|
E:-------------------------------------------------------------------------|
................



solos
e:---------------------------------------------------|---------------------|
B:---------------------------------------------------|---------------------|
G:--------------4------------------------------------|---------------9h11h1|
D:-5------------4------------------------------------|--keyboard-----------|
A:-5------------2-------------2-2-2-2-2-2-2-2-2-2-2--|---------------------|
E:-3-------------------------------------------------|---------------------|
pm.....................




e:-----------------12h14h15p14p12----12h14h15p14p12------------------------|
B:-----12h13h15/17----------------15----------------15-13-12b(13)r---------|
G:2/14-------------------------------------------------------------14p12p11|
D:-------------------------------------------------------------------------|
A:-------------------------------------------------------------------------|
E:-------------------------------------------------------------------------|





e:------------------------------------------15h17p15p14--------------------|
B:------------------------------------------------------17p15p1312-12h13h1|
G:------------------------------keyboard-----------------------------------|
D:-14p12p10-12p10p9--------------------------------------------------------|
A:------------------12p10p9-7~---------------------------------------------|
E:-------------------------------------------------------------------------|





e:-------------------------------------------------------------------------|
B:5p13p12------------------------------------------------------------------|
G:--------14p1211h14--11h12h11----------------------------------------Keyb|
D:------------------------------14p12p109h10h12p10p9-----------7~~--------|
A:----------------------------------------------------12p10p97------------|
E:-------------------------------------------------------------------------|





e:------------------------------------------------10p12/17p151312--------|
B:---------------------------------------10p12p13-------------------15p13p1|
G:oard-----------7h9h10p9p7----7p9p10p12-----------------------------------|
D:--------7h9h10------------10---------------------------------------------|
A:-------------------------------------------------------------------------|
E:-------------------------------------------------------------------------|





e:--------------------------------------22p20p1917------------------------|
B:210----------------------------------------------20p19p1715------------|
G:-----12p10p97------------keyboard----------------------------19p17p1614|
D:---------------10p9p7~~--------------------------------------------------|
A:-------------------------------------------------------------------------|
E:-------------------------------------------------------------------------|




A.H. Bridge
e:-------------------------------------------------------------|-----------|
B:-------------------------------------------------------------|-----------|
G:--------------------------------------------------------9----|--(no-guita|
D:-17p16p1412-9h10h12p10p9------------------------------------|-----------|
A:--------------------------12p10p9h10h12p10p9-----------------|-----------|
E:---------------------------------------------12p10p97-------|-----------|




Guitar in at (2:41)
e:----|--------------------------------------------------------------------|
B:----|--------------------------------------------------------------------|
G:r)--|--------5--------7--------5--------7--------5--------7--------5-----|
D:----|--------5--------7--------5--------7--------5--------7--------5-----|
A:----|--0-0-0----0-0-0----0-0-0----0-0-0----0-0-0----0-0-0----0-0-0----0-0|
E:----|--------------------------------------------------------------------|
pm..... pm..... pm..... pm..... pm..... pm..... pm..... pm...




e:-------------------------------------------------------------------------|
B:-------------------------------------------------------------------------|
G:---7---------------------------------------------------------------------|
D:---7---------------------------------------------------------------------|
A:-0-----------5----7-----------------5----7-----------------5----7--------|
E:-------0-0-0-3--0-5--0-5-3-2--0-0-0-3--0-5--0-5-3-2--0-0-0-3--0-5--0-5-3-|
.. pm..... pm. pm.......pm..... pm. pm.......pm..... pm. pm......




e:------------------------------------------------------------------------|
B:------------------------------------------------------------------------|
G:------------------------------------------------------------------------|
D:------------------------------------------------------------------------|
A:---------5----7----------------------------5----7------------------2-2--|
E:2--0-0-0-3--0-5--0-5-3-2-------------0-0-0-3--0-5--0-5-3-2---------0-0--|
.pm..... pm. pm....... pm..... pm. pm....... pm...



Verse 2
e:-------------------------------------------------------------------------|
B:-------------------------------------------------------------------------|
G:--9------------4------------7---------------------------9------------4---|
D:--9------------4------------7-------------7--x----7--x--9------------4---|
A:--7------------2------------5-------------7--x----7--x--7------------2---|
E:------------------------------------------5--x----5--x-------------------|




Pre-chorus3
e:------------------------------------|------------------------------------|
B:------------------------------------|------------------------------------|
G:---------7--------------------------|--5--------5---4---2---------2------|
D:---------7------------7-------------|--5--------5---4---2---------2------|
A:---------5------------7-------------|--3--3-3-3-3---2---0---0-0-0-0--0-0-|
E:----------------------5-------------|------------------------------------|
pm..... pm..... pm....




e:-------------------------------------------------------------------------|
B:-------------------------------------------------------------------------|
G:2---------------------------------------------5--------5---4---2--------2|
D:2---------------------------------------------5--------5---4---2--------2|
A:0---------5h7p5-------2--------5-7p5-------2--3--3-3-3-3---2---0--0-0-0-0|
E:----0-0-0-------0-0-0-0--0-0-0-------0-0-0-0-----------------------------|
. pm..... pm..... pm..... pm..... pm..... pm.....



(same as intro) Cho
e:---------------------------------------------------------8----8h11-|-----|
B:------------------------------------------------10----10---10------|-----|
G:------2--------------------------8----8h11-8h11----11--------------|--7--|
D:------2------------7---7h10-7h10---10------------------------------|--7--|
A:--0-0-0----6h9-6h9---9---------------------------------------------|--5--|
E:---------7---------------------------------------------------------|-----|
pm.....



rus 2
e:-------------------------------------------------------------------------|
B:-------------------------------------------------------------------------|
G:-----------------------7----------------7---6---4------------------------|
D:-----------------------7----------------7---7---4------------5-----------|
A:-----------------------5----------------5---4---2------------5-----------|
E:-------------------------------------------------------------3-----------|




*2
e:--------------------------------------------------|----------------------|
B:--------------------------------------------------|----------------------|
G:--------------------------------------------------|--7-------------------|
D:--------------------2-----4-----2-----------------|--7-------------------|
A:--2-2-2-4-2-2-5-2-2---2-2---2-2---2-2-5-2-2-4-2-2-|--5-------------------|
E:--------------------------------------------------|----------------------|
pm...............................................




e:-------------------------------------------------------------------------|
B:-------------------------------------------------------------------------|
G:---7----------------7---6---4----------------------------4---------------|
D:---7----------------7---7---4--------------5-------------4---------------|
A:---5----------------5---4---2--------------5-------------2-------9----9h1|
E:-------------------------------------------3-------------11p7h11---11----|





e:-------------------------------------------------------------------------|
B:-------------------------------------------12h13h16-----------------10h12|
G:-------------------------11----11h14-11h14-----------9---7---9-----------|
D:-------10----10h13-10h13----13-----------------------9---7---9-----------|
A:2-9h12----12-----------------------------------------7---5---7-----------|
E:-------------------------------------------------------------------------|





e:-------------------------------------------------------------------------|
B:p10p8--------------------------------------------------------------------|
G:------11p9p8------------------------------------------------------9h11h12|
D:-------------10p9p7----------5---4---5-------7---6---7-----7h9h10--------|
A:--------------------12p10p9--5---5---5-------7---7---7-------------------|
E:-----------------------------3---2---3-------5---4---5-------------------|





e:---------------------------------|-----|
B:-10h12p10------------------------|-----|
G:----------12p10p9--4-------------|--End|
D:-------------------4---1---2-----|-----|
A:-------------------2---2---2-----|-----|
E:---------------------------0-----|-----|