Stop Censorship
 
 

 
 1-9 a b c d e f g h i j k l m n o p q r s t u v w x y z
   Sonata Arctica - Kingdom For A Heart Tab    


********************************************************************
* SONATA ARCTICA - KINGDOM FOR A HEART *
********************************************************************
Music and Words By: Sonata Arctica

Transcribed By: Tor Magne
email: water_joe60@hotmail.com


-----------------------------------------

Tune down 1/2 step!

Intro
E----------------------------------------------------------------------------------|
B----------------------------------------------------------------------------------|
G--------------------------/3-4-3-4-/6--------------------------------------------|
D-----------------/2-4-2-4----------------------4----------------2--------------4-7|
A--------/4-5-4-5------------------------2-4-5---5-4-2-4--2-4---4-2-0-2-/5-7----|
E--7-6-7---------------------------------------------------------------------------|
pm....| pm...|

E----------------------------------------------------------------------------------|
B----------------------------------------------------------------------------------|
G----------------------------------------------------------------------------------|
D-4---------------9-----------11~---------4----------------2--------------4-7-4----|
A---7-5-7-/7-9-10----9-11-13------2-4-5---5-4-2-4--2-4---4-2-0-2-/5-7-------7-5|
E----------------------------------------------------------------------------------|
pm............| pm.....| pm....| pm....| pm...

end Intro Verse 1
E----------------------------------------------------------||----------------------|
B--------------------------------------------------12-12--||----------------------|
G-----------------------------------------------11---------||----------------------|
D-----------7-9~---------9-11~----/9-8-9-11-h12------------||--4-------------------|
A-7-/7-9-10------9-11-13-----------------------------------||--2-2-2-2-2-2-2-4----|
E----------------------------------------------------------||----------------2-2-2|
..| pm..........| pm..

E----------------------------------------------------------------------------------|
B----------------------------------------------------------------------------------|
G----------------------------------------------------------------------------------|
D---------/7--------------9--------------2------------5---------------------------|
A---------/5-5-5-5-5-5-5--7-7-7-7-7-7-7---0-0-0-0-0--3--5---5-------------p4~-/-2|
E-2-2-2-2-------------------------------------------------3---2-2-2-2-2-2-2--2~----|
........| pm..........| pm..........| pm........| pm..........| pm

Bridg
E----------------------------------------------------------------------------------|
B---------------------------------------------------------------------------|------|
G---------------------------------------------------------------------------|------|
D---4---4-----------------7---7------9---9-------------5~-------------------|-----7|
A-2-2-2-2------4---4--5-5-5-5-5--7-7-7-7-7------5---5--3~---4---------------|--5--5|
E----------2-2-2-2-2-------------7-7-7-7-7--3-3-3-3-3-------2-2-2-2-3-0-2~~----3---|
..| pm pm..| pm pm..| pm pm..| pm pm..| pm pm.......|

e (1) Riff 1
E----------------------------------------------------------------------------------|
B-------------------------------------------|--------------------------------------|
G-------------------------------------------|--------------------------------------|
D---2--4---2------------7-----4-----------|--------4----------------2------------|
A---0--2---0----2----5--5--7--2---4---4~--|--2-4-5---5-4-2-4--2-4---4-2-0-2-/5-|
E-----------------0----3-----5------2---2~-----------------------------------------|
pm....| pm....|

E----------------------------------------------------------------------------------|
B----------------------------------------------------------------------------------|
G----------------------------------------------------------------------------------|
D---4-7-4----------------9~------------11~----------4----------------2-------------|
A-7-------7-5-7--/7-9-10------9-11-13-------2-4-5---5-4-2-4--2-4---4-2-0-2-/5-7|
E----------------------------------------------------------------------------------|
pm.............| pm.....| pm....| pm....|

end Riff 1|
E-------------------------------------------------------------|--------------------|
B----------------------------------------------------------12--12------------------|
G-------------------------------------------------------11--------11-12-9-11-7-9-|
D-4-7-4----------------7-9----------9-11---/9-8-9-11h12----------------------------|
A-------7-5-7--/7-9-10------9-11-13------------------------------------------------|
E----------------------------------------------------------------------------------|
pm....|
Bridge (2)
E----------------------------------------------------------------------------------|
B------------|-----------|---------------------------------------------------------|
G-6-7-6-4~--|--Verse-2--|---------------------------------------------------------|
D------------|-----------|-----7---2--4----2-----------7-----4-------------------|
A------------|-----------|--5--5---0--2----0---2----5--5--7--2----4-------------|
E---------------------------3--------------------0----3-----5-------2-2-2-2-2-2-2-|
pm...........|
Chorus
E----------------------------------------------------------------------------------|
B------|---------------------------------------------------------------------------|
G------|---------------------------------------------------------------------------|
D------|---4--------------4---------------4-----------/-7-----9-----4-----------9--|
A-4~~--|---2---5---/2-4-5---5-4-2-4-2-4-5---5-4-2-4---/-5-----7-----2---5---7---7--|
E-2~~----------3--------------------------------------------------------3---5------|

Guitar Solo
E----------------------------------------------------------------------------------|
B----------------------------------------------------------|----------|------------|
G----------------------------------------------------------|--Riff-1--|------------|
D----------------------------------------------------------|----------|------------|
A----5----------------------------------------------------|----------|---------7-9|
E----3-3-3-3-3-3-3-3-3-3-3-3-3-3-3-3-3-3-3-3-3-3-3-3-3-3----------------7-9-10----|
pm................................................|

olo
E---------------------------------------------------------------/14h15p14p12-------|
B----------------------------------------------------------------------------15p14p|
G-------------------------7-9-11/12-11-9-------------------------------------------|
D-----------7-9-11-7-9-11----------------12-11-9-----------------------------------|
A-10-7-9-10--------------------------------------12-10-9---------------------------|
E--------------------------------------------------------12~~----------------------|

Two Guitars.|
E--------------------------------------------------------15-12-15-12-14-12---------|
B12-------15p14p12---------------------------------------17-12-17-12-------12-10~~-|
G---14p12----------14p12p11h12h14b(15)~-b(16)-r14-12-------------------------------|
D----------------------------------------------------14----------------------------|
A----------------------------------------------------------------------------------|
E----------------------------------------------------------------------------------|

E----------------------------------------------------------------------------------|
B----------------------------------------------------------------------------------|
G-/12-14-16-14-12----12-14-16-14-12----12-14-16-14-12----12-14-16-14-12----12-14-16|
D-----------------14----------------14----------------14----------------14---------|
A----------------------------------------------------------------------------------|
E----------------------------------------------------------------------------------|

E----------------------------------------------------------------------------------|
B-------15----------17----------15----------17----------15----------17-------------|
G-15-16----16-15-16----16-15-16----16-15-16----16-15-16----16-15-16----16-15-16-14-|
D----------------------------------------------------------------------------------|
A----------------------------------------------------------------------------------|
E----------------------------------------------------------------------------------|

E----------------------------------------------------------------------------------|
B---------------------------------------------|-----------------|------------------|
G-12------------------------------------------|--Keyboard-Solo--|-------------6-7-6|
D----16-14--14~~--12h14p12--------------------|-----------------|---------6-7------|
A--------------------------14-12--------------|-----------------|--5-7-8----------|
E--------------------------------15-14-12~~----------------------------------------|

Verse 3
E----------------------------------------------------------------------------------|
B----------------------|-----------------------------------------------------------|
G-7~~------------------|-----------------------------------------------------------|
D-------9----11~~-----|--4----------------------------/7--------------9-----------|
A-------7-----9~~-----|--2-2-2-2-2-2-2--4-------------/5-5-5-5-5-5-5--7-7-7-7-7-7-|
E----------------------------------------2-2-2-2-2-2-2-----------------------------|
pm..........| pm..........| pm..........| pm.........

E----------------------------------------------------------------------------------|
B----------------------------------------------------------------------------------|
G----------------------------------------------------------------------------------|
D---2--------------5--------------------------4---4------------------7---7------9-|
A-7--0-0-0-0-0-0--3--5--5p2-------------/2-2-2-2-2------4---4--/5-5-5-5-5--7-7-7-|
E----------------------3--2--2-2-2-2-0-2--------------2-2-2-2-2--------------7-7-7-|
..| pm...........| pm.........| pm...| pm pm..| pm pm..| pm pm..|

Bridge (3)
E----------------------------------------------------------------------------------|
B--------------------------------|-------------------------------------------------|
G--------------------------------|-------------------------------------------------|
D---9-------5--------------------|-----7---2--4-------7----2---4-------7---2--4|
A-7-7--5---3---4----------------|--5--5---0--2---5---5----0---2---5--5---0--2|
E-7-7--3-------2-2-2-2-2-3-0-2~----3---------------3----------------3------------|
pm pm..........|

E------------at-(2:51):------------------------------------------------------------|
B--------------------------------------------------------------------|-------------|
G--------------------------------------------------------------------|---Chorus----|
D--------------------------------------------------------------------|----(x2)-----|
A--4~~---------------------------------------------------------------|-------------|
E--2~~---------/3-3-3-3-3-3-3-3-3-3-3-3-3-3-3-3-3-3-3-3-3-3-3-3-3-3----------------|
pm...................................................|
_________________________ _
|1.3. |2
E------------------------------------------------------|-------------------------|-|
B------------------------------------------------------|-------------------------|-|
G*-----------------------------------------------------|------------------------*|-|
D*--------4----------------2--------------4-7-4--------|---------9----------11--*|-|
A---2-4-5---5-4-2-4--2-4---4-2-0-2-/5-7-------7-5-7--|--7-9-10----9-11-13------|-|
E------------------------------------------------------|-------------------------|-|
pm....| pm....| pm....| pm.....| pm......|
____________________________
.4. |
E----------------------------||----------------------------------||
B----------------------------||----------------------------------||
G---------------------------*||----------------------------------|| end
D--------7-9----------9-11--*||--4----2---------5----4-4-------||
A-7-9-10------9-11-13--------||--2----0----5----3----2-2-------||
E----------------------------||--------0----3----3---------------||

--------------------------------------------------------------------------------------

Rhythm Guitar during Guitar Solo
E----------------------------------------------------------------------------------|
B----------------------------------------------------------------------------------|
G----------------------------------------------------------------------------------|
D--9--------------------------9--------------/7--5--4-----/-9---------------------|
A--7-7-7-7-7-7-7-7-7-/9-9-9-9-7-7-7-7-7-7-7------------5--/-7-7-7-7-7-7-7-7-7-7-7-|
E----------------------------------------------------------------------------------|
pm.......................| pm..........| pm...................

E----------------------------------------------------------------------------------|
B----------------------------------------------------------------------------------|
G----------------------------------------------------------------------------------|
D-------7~~----/-9--------------------------9--------------/7--5--4-----/-9-------|
A-7-7---5~~----/-7-7-7-7-7-7-7-7-7-/9-9-9-9-7-7-7-7-7-7-7------------5--/-7-7-7-7-|
E----------------------------------------------------------------------------------|
....| pm.......................| pm..........| pm.....

E----------------||
B----------------||
G----------------|| end
D----------------||
A-7-7-7-7-7-7-7--||
E----------------||
..............|

Rhythm Guitar during Keyboard Solo
E----------------------------------------------------------------------------------|
B----------------------------------------------------------------------------------|
G----------------------------------------------------------------------------------|
D--7~-----5-----------------------------------------------------------------------|
A--5~-----3-3-3-3-3-3-3-3-3-3-3-3----3--------------------------3-----------------|
E-------------------------------------1-1-1-1-1-1-1-1-1-1-1-1-1--1-1-1-1-1-1-1-1-1-|
pm....................| pm......................| pm...............

E----------------------------------------------------------------------------------|
B----------------------------------------------------------------------------------|
G----------------------------------------------------------------------------------|
D---------------------------------3------5---5-------------------------------------|
A------3--------------------------1------3---3---3----------------------3---------|
E-1-1--1-1-1-1-1-1-1-1-1-1-1-1-1-----3~----------1-1-1-1-1-1-1-1-1-1-1--1-1-1-1-1-|
....| pm......................| pm..................| pm.......

E----------------------------------------------------------------------------------|
B----------------------------------------------------------------------------------|
G--------------------------------------------------6-5-3---------------------------|
D------------------------------------------3-6-5-3-------6-5-3-2-3-----------------|
A--------------3-------------------------3-------------------------3-4-1-3---1----|
E-1-1-1-1-1-1--1-1-1-1-1-1-1-1-1-1-1-3-4------------------------------------4---3-4|
............| pm................|

E------------------------------------------------||
B------------------------------------------------||
G------------------------------------------------|| end
D----------------------------------3------2--2---||
A--3------------------------------1--5---0--0---||
E--1-1-1-1-1-1-1-1-1-1-1-1-1-1-1-----3----------||
pm..........................|

--------------------------------------------------------------------------------------

=======================
=TABLATURE EXPLANATION=
=======================

A.H. = Artificial Harmonic

pm..| = Palm mute

h = hammer on

p = pull off

/ = slide up

= slide down

~ = Vibrato

b() = Bend

x = Pick Slide

--------
--------
---12--- = Tremolo pick
----/---
----/---
----/---

---.---
--12--- = Staccato
-------
-------
-------

| |
| |
|* *| = repeat from * to *
|* *|
| |


LYRICS:
*****************************************************************

What the hell are you standing there for,
Expecting me to help you, when I`m down myself
Waiting my saviour,
My world is flooding over,
There`s no room for air, I can`t breathe,
I would give a kingdom
for one more day

I`d give - a kingdom
For one more day as a king of your world
I`d give a kingdom, for just one more day

What the hell am I waiting here for,
Expecting you to come and give away your life
Just for a moment of my time,
Have ahole where I should have a heart, I`m made of wood,
I`m falling apart,
I would give a kingdom for one more day

I`d give - a kingdom
For one more day as a king of your world
I`d give a kingdom, for one more day

I`d give it all for a heart,
If I was King I would give away my kingdom
Treasures and crowns wouldn`t mean a thing
If I only had a heart, if I only had a heart...

Now I know I will never love you,
I`m a man without a heart,
I`m not allowed to feel human feelings
I`m king of the land, I`m a ruler of seas,
I`d give it away in a moment,
If I only had a moment.

I`d give - a kingdom
I`d give a kingdom
I`d give - a kingdom
For just one more day

I`d give it all for a heart,
If I was King I would give away my kingdom
Treasures and crowns wouldn`t mean a thing
If I only had a heart...

I`d give it all for a heart,
If I was King I would give away my kingdom
Treasures and crowns wouldn`t mean a thing
If I only had a heart, if I only had a heart...

I`d give it all for a heart,
If I was King I would give away my kingdom
Treasures and crowns wouldn`t mean a thing
If I only had a heart, if I only had a heart...

*****************************************************************