Stop Censorship
 
 

 
 1-9 a b c d e f g h i j k l m n o p q r s t u v w x y z
   Sonata Arctica - Last Drop Falls Tab    

**************************************************************
* SONATA ARCTICA - LAST DROP FALLS (From the ALBUM: SILENCE) *
**************************************************************
Music and Words By: Sonata Arctica/T.Kakko
Tabbed By:SteveReid
Day tabbed: 15.12.2001
email: humish_foolin@hotmail.com

Please mail me if you can find mistakes
Rate me please
-------------------------------------------

Tune down 1/2 step!

Intro (Clean sound with chorus)
E--3-------3------3------/2-------3--------3--------3------2-------3-------3--------|
B----0---0---0------3-------3--------0---0---0---0----3------3-------0---0---0---0--|
G------0-------0------0-------2--------0-------0--------0------2-------0-------0----|
D--2---------------------/0-------2------------------------0-------2----------------|
A-----------------------------------------------------------------------------------|
E-----------------3---------------------------------3------------------------------|

E-3------2---------------0---------------------------------0------------3-----------|
B---3------3-----------1---1------------1---------3----------3------------3---------|
G-----0------2-------2-------2--------0---------0--------------0------------4-------|
D--------0---------2-----------2----2---------4------------------0------------------|
A----------------0----------------3-------/-5----------------------------------5---|
E-3---------------------------------------------------0~------------3---------------|

E---------0--------------------------------0-----------3------------------0---------|
B-------1---1------------1----------3--------3-----------3--------------1---1-------|
G-----2-------2--------0----------0------------0-----------4----------2-------2-----|
D---2-----------2----2----------4----------------0------------------2-----------2---|
A-0----------------3--------/-5------------------------------5---0---------------/-|
E--------------------------------------0------------3-------------------------------|

end Intro Bridge
E-----------------------------------------------3--------2--------1-----------------|
B-------1---------3--------|--Verse-1--|------3--------3--------1---1-------------1-|
G-----0---------0----------|--same-as--|----4--------2--------2-------2---------0---|
D---2---------4------------|---Intro---|--5-------4--------3-----------3-0---2-----|
A-3-------/-5--------------|-----------|------------------------------------3-------|
E--------------------0~~------------------------------------------------------------|

E-0---------------0-------2-------3--------2-------1-----------------0--------------|
B---1-----------0-------3-------3--------3-------1---1-------------1---1-----------3|
G-----0-------0-------2-------4--------2-------2-------2---------0-------0-------2--|
D-------2---2-------4-------5--------4-------3-----------3-0---2-----------2--0----|
A------------------------------------------------------------3----------------------|
E-----------------------------------------------------------------------------------|

Verse 2
E-2h3p2---------3-------3--------3------2------3-------3--------3------2-------3----|
B-------3----|----0---0---0---0----3------3------0---0---0---0----3------3-------0--|
G---------2--|------0-------0--------0------2------0-------0--------0------2-------0|
D------------|--2-----------------------0------2-----------------------0-------2----|
A------------|----------------------------------------------------------------------|
E--------------------------------3------------------------------3-------------------|

Dist.on
E---3--------3------2---------------------------------------------------------------|
B-0---0---0----3------3-------------------------------------------------------------|
G-------0--------0------2----2~-----5-----7-----9------------------5-----7-----9----|
D-------------------0--------2~-----5-----7-----9-----5-----7-----5-----7-----9----|
A----------------------------0~-----3-----5-----7-----5-----7-----3-----5-----7----|
E------------3----------------------------------------3-----5---------------------|

Bridge (2)
E-----------------------------------------------------------------------------------|
B-----------------------------------|-----------------------------------------------|
G----------------5-----7------------|---7--7----5----5----4--/--7--/--7----7---5--|
D----5-----7-----5-----7------------|---5--4----3----5----2--/--4--/--5----4---3--|
A----5-----7-----3-----5---/--7~----|-----------------3-----------------------------|
E-2~-3-----5------------------------------------------------------------------------|

Chorus (an acoustic gtr strums the same acords as the dist gtr.)
E-----------------------------------------------------------------------------------|
B----------------------|------------------------------------------------------------|
G--5-------------------|---2-----5-----9-----7-/-7-----2-----5--------------------2-|
D--5----2----4--------|---2-----5-----9-----4-/-5-----2-----5-----2----4----6----2-|
A--3----2----5--------|---0-----3-----7---------------0-----3-----2----5----7----0-|
E-------0----2-/-3~~----------------------------------------------0----2----4------|

Guitar Solo(with Verse 1 riff)
E----------------------------------------------------------17/19--17-15-------------|
B------------------------------------------------------|-------------------17~~----|
G----5-----9----7-/-7-----2-----5-----4----------------|----------------------------|
D----5-----9----4-/-5-----2-----5-----4----------------|----------------------------|
A----3-----7--------------0-----3-----2----0~----------|----------------------------|
E----------------------------------------------3~--2~-------------------------------|


E------------------------------------/--15-14----------------------------------------|
B--12--15---------------------------------------15-----------------------------------|
G----------14/16---r14--12--------------------------14-12-11---------------------7---|
D----------------------------r14--------------------------------12------/--7h8h9---9-|
A-------------------------------------------------------------------12~--------------|
E------------------------------------------------------------------------------------|
*=play these tones with the volume swell effect!

E----------------------------------------------------------------12h14p12-------|
B-12~-----------------13b~--r13-12h13p12~---12h15h17-17p15p12h15----------15p12h|
G---------------12--------------------------------------------------------------|
D------------------14-----------------------------------------------------------|
A------12h13h14-----------------------------------------------------------------|
E-------------------------------------------------------------------------------|

E---12h14-/15-14-12--------------------------------------15-19-17-19-15-19-14-15b-|
B15-----------------15-13-12------------------------------------------------------|
G----------------------------14-12-11-/14b(16)r14~-------------------------------|
D---------------------------------------------------------------------------------|
A---------------------------------------------------------------------------------|
E---------------------------------------------------------------------------------|

E-r15p14-----------------------------------------------------------------------|
B----------15~--------------------------------/12-15---------------------------|
G----------------11b-r11-9~-------------------------14b-r14~--12---/--4-7------|
D--------------------------------9b-r9-7~---------------------------------7b---|
A------------------------------------------------------------------------------|
E------------------------------------------------------------------------------|

A.H Chorus
E-------------------------12~~-----------------------------------------------------|
B-------------------------------------|--Verse-3---|----------------------|--------|
G------------9~------------------------|--same-as---|----------------------|*--2----|
D-r7~--5----------A.H------------------|--Verse-1---|--4-4-4-4--/-6-6-6-6--|*--2----|
A--------7~--------7~~-----------------|------------|--5-5-5-5--/-7-7-7-7--|---0----|
E------------------------------------------------------2-2-2-2--/-4-4-4-4-----------|
pm.................|
_____________________ ___________
(2) |1.2.3. |4. | Clean Sound
E------------------------------|---------------------|-----------||---3------3------|
B------------------------------|---------------------|-----------||-----0------3----|
G-5-----9----7-/-7----2-----5--|--------------------*|-----------||-------0------0--|
D-5-----9----4-/-5----2-----5--|--2----/--4--/--6---*|---2~------||-----------------|
A-3-----7-------------0-----3--|--2----/--5--/--7----|---2~------||-----------------|
E------------------------------|--0----/--2--/--4----|---0~------||-----------------|

E-2-------3-----3--------3-----------2--------------------<12>~~----||
B---3-------0------0---------0-----------3---------------<12>~~-----||
G-----2-------0-------0----------0-----------2~~-------<12>~~-------|| end
D-------------------------------------------------------------------||
A-------------------------------------------------------------------||
E--------------------------------------------------0~~--------------||
======================================================================================
A.H. = Artificial Harmonic

pm..| = Palm mute

h = hammer on

p = pull off

/ = slide up

= slide down

~ = Vibrato

b() = Bend

x = Pick Slide

--------
--------
---12--- = Tremolo pick
----/---
----/---
----/---

---.---
--12--- = Staccato
-------
-------
-------

| |
| |
|* *| = repeat from * to *
|* *|
| |

LYRICS:
***********************************************************************

When I´m looking in your eyes
Everything seems to fade away
After all these years we had do I know you now
Have I trusted blindly in your love, too many times

You said: "hey, my love, I´m sorry but we can´t go on ´cause
I´m in love with someone else"
Tell me, what do you want me to say
When you treat me this way

Oh I love you, maybe
And I hope it goes away
Oh, how I want you daily
I know it´s gonna stay

You are so self satisfied
Always ready for a ride
Double crossing, lousy cheat, love you anyway
You have warm and tender devils soul, you are so low

I can hear you say: "I´m sorry, should we still go on,
I´m not in love with that someone else"
Tell me, what do you want me to say
When you treat me this way

Oh I love you, maybe?
And I hope it goes away
Oh, how I want you daily

Tell me now that...
I have found the whore in you
Why can´t I tell you no
Time will show, the last word is for me
If you fail to see the problem we have, one room full of walls
Jar of love isn´t dry until the last drop falls

The moment I will step aside, you´re ready for another ride
Walking in the cool night air without underwear
You have red light burning in your soul, I´ve seen the glow

In every dream I have I say: "I´m not in love with you"
But every day I say I do
You have messed with my head so many times
Forced me to love you (spoken)

Now that...
I have found the whore in you
Why Can´t I tell you no
Time will show, the last word is for me
If you fail to see the problem we have, one room full of walls
I will try until the last drop falls

Now that...
I have found the whore in you
Why Can´t I tell you no
Time will show, the last word is for me
If you fail to see the problem we have, one room full of walls
I will try until the last drop falls


***********************************************************************