Stop Censorship
 
 

 
 1-9 a b c d e f g h i j k l m n o p q r s t u v w x y z
   Sonata Arctica - Mary Lou Tab    

Tune down 1/2 step!

Intro
E----------------------------------------------------------------------------------|
B----------------------------------------------------------------------------------|
G----------------------------------------------------------------------------------|
D--7--7-------5--5-------8--8-------7--7-------------------------------------------|
A--5--5-5-5-5-5--5-5-5-5-5--5-5-5-5-5--5-5-5-5--10-10-------8--8-------5--5-------|
E-----------------------------------------------6--6--6-6-6-6--6-6-6-6-6--6-6-6-6-|
pm....| pm....| pm....| pm...| pm....| pm....| pm.....

E----------------------------------------------------------------------------------|
B----------------------------------------------------------------------------------|
G----------------------------------------------------------------------------------|
D-----------5------7--7-------5--5-------8--8-------7--7-------------------------7-|
A-----5-7-8---8-7-5--5-5-5-5-5--5-5-5-5-5--5-5-5-5-5--5-5-5-5--10---10--8-----5-|
E-8-6-----------------------------------------------------------6----6---6-------|
..........| pm..| pm....| pm....| pm....| pm....|

E----------------------------------------------------------------------------------|
B----------------------------------------------------------------------------------|
G----------------------------------------------------------------------------------|
D-7-------5--5-------8--8-------7--7-----------------------------------------------|
A-5-5-5-5-5--5-5-5-5-5--5-5-5-5-5--5-5-5-5--10-10-------8--8-------5--5---------5-|
E-------------------------------------------6--6--6-6-6-6--6-6-6-6-6--6-6-6-6-8---|
pm....| pm....| pm....| pm...| pm....| pm....| pm.........

E----------------------------------------------------------------------------------|
B----------------------------------------------------------------------------------|
G----------------------------------------------------------------------------------|
D-----5-------7--7-------5--5-------8--8-------7--7--------------------------------|
A-7-8---8-7--5--5-5-5-5-5--5-5-5-5-5--5-5-5-5-5--5-5-5-5--8--8-------7--7-------5|
E----------------------------------------------------------6--6-6-6-6-6--6-6-6-6-6|
....| pm..| pm....| pm....| pm....| pm....| pm....| pm....|

end Intro Verse 1
E--------------------------||------------------------------------------------------|
B--------------------------||------------------------------------------------------|
G--------------------------||------------------------------------------------------|
D-------------------5------||--7----5----3--/-5----7---------3----5----3---/-5----|
A-5-----------5-7-8---8-7--||--5----3----1--/-3----5-----3---1----3----1---/-3----|
E-6-6-6-6-6-8--------------||-----------------------------1------------------------|
pm..............| pm..|

Bridge (1)
E----------------------------------------------------------------------------------|
B----------------------------------------------------------------------------------|
G--/-7--7/-10--------------7----10-------------------------------------------------|
D--/-5---/-8---10----7----5----8----10---7-7----5----7----5----------3--------5~~-|
A--------------7-----5--------------7----5-5----3----5----3---1-1-1-1--2-2-2-2~~-|
E----------------------------------------------------------------------------------|
pm.....| pm....|

Verse 2 Bridge (2)
E----------------------------------------------------------------------------------|
B------|---------------------------------------------------------------|-----------|
G------|---------------------------------------------------------------|--/-7---10-|
D--5---|-/-7---------3----5-----3---/-5----7--------3----5----3---/-5--|--/-5---8--|
A--3---|-/-5-----3---1----3-----1---/-3----5----3---1----3----1---/-3--|-----------|
E----------------1------------------------------1----------------------------------|

Chorus
E----------------------------------------------------------------------------------|
B---------------------------------------------------------------|------------------|
G---------------7----10-----------------------------------------|-------------5---/|
D--10----7-----5----8----10----7-7----5----7----5--------------|---7----5----3----|
A--7-----5---------------7-----5-5----3----5----3----7---/4~---|---5----3--------/|
E-----------------------------------------------------5----------------------------|

Two Gtrs..| Two Gtrs...|
E----------------------------------------------------------------------------------|
B-3-1--------------------------------------------------/3-1------------------------|
G-3-2-2-0------------------/-5----5---------------5---/3-2-2-0--------------------|
D-----3-2----7----5----3---/-3----2-----7----5----3--------3-2---7----5----3----5-|
A-------------5----3----1----------------5----3-------------------5----3----1----3-|
E----------------------------------------------------------------------------------|

E----------------------------------------------------------------------------------|
B---|------------------------------------------------------------------------------|
G---|------------------------------------------------------------------------------|
D---|--7--7-------5--5-------8--8-------7--7---------------------------------------|
A---|--5--5-5-5-5-5--5-5-5-5-5--5-5-5-5-5--5-5-5-5--10-10-------8--8-------5--5---|
E---------------------------------------------------6--6--6-6-6-6--6-6-6-6-6--6-6-|
pm....| pm....| pm....| pm....| pm....| pm....| pm.

E----------------------------------------------------------------------------------|
B----------------------------------------------------------------------------------|
G----------------------------------------------------------------------------------|
D-------------5-------7--7-------5--5-------8--8-------7--7------------------------|
A-------5-7-8---8-7--5--5-5-5-5-5--5-5-5-5-5--5-5-5-5-5--5-5-5-5--8--8-------7--7|
E-6-6-8------------------------------------------------------------6--6-6-6-6-6--6|
............| pm..| pm....| pm....| pm....| pm....| pm....|

Verse 3
E----------------------------------------------------------------------------------|
B------------------------------|---------------------------------------------------|
G------------------------------|---------------------------------------------------|
D------------------------------|--7--------------------3----5----3---/-5----7------|
A-------5--5-------8--7-/-8---|--5---------3---/1-1-1-1----3----1---/-3----5----3-|
E-6-6-6-6--6-6-6-6-6---6---6----------1-1-1-1------------------------------------1-|
pm....| pm....| pm....| pm....|

E----------------------------------------------------------------------------------|
B-----------------------|----------|----------|------------------------------------|
G-----------------------|--Bridge--|--Chorus--|------------------------------------|
D---3----5----3---/-5---|---(2)----|----------|--7--7-------5--5-------8--8-------7|
A---1----3----1---/-3---|----------|----------|--5--5-5-5-5-5--5-5-5-5-5--5-5-5-5-5|
E----------------------------------------------------------------------------------|
pm....| pm....| pm....|

E----------------------------------------------------------------------------------|
B----------------------------------------------------------------------------------|
G----------------------------------------------------------------------------------|
D-7--------------------------------------------------5------7--7-------5--5-------8|
A-5-5-5-5-10-10-------8--8-------5--5---------5-7-8---8-7-5--5-5-5-5-5--5-5-5-5-5|
E---------6--6--6-6-6-6--6-6-6-6-6--6-6-6-6-8-------------------------------------|
pm...| pm....| pm....| pm............| pm..| pm....| pm....|

Guitar Solo
E------------------------------------------------------------------------20b(22)~-r|
B---------------------------------------------------|-----------------|------------|
G---------------------------------------------------|--Keyboard-Solo--|------------|
D-8-------7--7--------------------------------------|-----------------|------------|
A-5-5-5-5-5--5-5-5-5--8--8-------7--7-------5~~----|-----------------|------------|
E---------------------6--6-6-6-6-6--6-6-6-6-6~~-----------------------------------|
pm....| pm....| pm....| pm....|

E-20b(22)~--r-20p17h20-20b(22)~~~--20-/22--22b(24)~--22b(24)~--r22-20--------------|
B---------------------------------------------------------------------20-17~~---15-|
G----------------------------------------------------------------------------------|
D----------------------------------------------------------------------------------|
A----------------------------------------------------------------------------------|
E----------------------------------------------------------------------------------|

E----------------------------------------------------------------------------------|
B-15--10-10-10-/11-11-11----------------------------------------------------------|
G--------------------------12-12-12-/14-14-14-10-10-10-/12-12-12-10----12b(14)~-|
D----------------------------------------------------------------------12----------|
A----------------------------------------------------------------------------------|
E----------------------------------------------------------------------------------|
pm

E--------------------------/17p13----13h17p15p1312h13p12--------------------------|
B---------------------------------15----------------------15h17p15-13p11----------|
Gr-12p10-12~--9b(10)-r9~~-------------------------------------------------14p12p10-|
D----------------------------------------------------------------------------------|
A----------------------------------------------------------------------------------|
E----------------------------------------------------------------------------------|

E----------------------------------------------------------------------------------|
B----------------------------------------------------------------------------------|
G12h14p12-10h12p10----12--------A.H.---------------------------------------------10|
D------------------14----12-15--14~--15-12--10-12----------------------10-12-14---|
A------------------------------------------------------------8-10-12/14------------|
E---------------------------------------------------8-10-12-----------------------|
pm...................|

E----------------13-15-17-/20h22~~------------------------------------------------|
B----------13-15-------------------------------------------------------------------|
G-10-12-14-----------------------------------------------------------------10-12-14|
D-----------------------------------------------------------11----11-12-14---------|
A--------------------------------------------------10-12-13----13------------------|
E--------------------------------------9-10-12-13---------------------------------|
pm.........................|

E-------------------12-13-15-15b(17]~~--------------------------------------------|
B-11-------11-14-15-----------------------|----------------------------------------|
G----12-14--------------------------------|----------------------------------------|
D-----------------------------------------|---6--7--9--6---7--7-------5--5-------8|
A-----------------------------------------|---4--5--7--4---5--5-5-5-5-5--5-5-5-5-5|
E----------------------------------------------------------------------------------|
pm....| pm....|

E----------------------------------------------------------------------------------|
B----------------------------------------------------------------------------------|
G----------------------------------------------------------------------------------|
D--8-------7--7---------------------------------------------------5-------7-------|
A--5-5-5-5-5--5-5-5-5--10-10-------8--8-------5--5---------5-7-8---8-7--5-------|
E----------------------6--6--6-6-6-6--6-6-6-6-6--6-6-6-6-8------------------------|
pm....| pm....| pm....| pm....| pm............| pm..|

E----------------------------------------------------------------------------------|
B----------------------------------------------------------------------------------|
G----------------------------------------------------------------------------------|
D---------------------------/7--7-------5--5-------8--8-------7--7-----------------|
A----10---8-p-7--5--7-h-8---/5--5-5-5-5-5--5-5-5-5-5--5-5-5-5-5--5-5-5-5--10-10---|
E----6----6------6--6-----------------------------------------------------6--6--6-|
pm....| pm....| pm....| pm....| pm.

E----------------------------------------------------------------------------------|
B----------------------------------------------------------------------------------|
G----------------------------------------------------------------------------------|
D-----------------------------------5-------7--7-------5--5-------8--8-------7--7--|
A-----8--8-------5--5---------5-7-8---8-7--5--5-5-5-5-5--5-5-5-5-5--5-5-5-5-5--5-5|
E-6-6-6--6-6-6-6-6--6-6-6-6-8------------------------------------------------------|
....| pm....| pm............| pm..| pm....| pm....| pm....| pm

Chorus (2) Two Gtrs..|
E----------------------------------------------------------------------------------|
B--------------------------------------|--------------------/3-1-------------------|
G--------------------------------------|----------------5---/3-2-2-0---------------|
D--------------------------------------|--7---5--5-----3--------3-2----7----5----3|
A-5-5-8--8-------7--7-------5---5----|--5---3--3---------------------5----3----1|
E-----6--6-6-6-6-6--6-6-6-6-6---6------------------------------------------------|
....| pm....| pm....|

Two Gtrs..|
E----------------------------------------------------------------------------------|
B----------------------------/3-1---------------------------|--------------|-------|
G--/--5---5--------------5---/3-2-2-0-----------------------|--Chorus-(1)--|-------|
D--/--3---2-----7----5---3--------3-2----7----5----3----5---|--------------|---7---|
A---------------5----3-------------------5----3----1----3---|--------------|---5---|
E----------------------------------------------------------------------------------|

E----------------------------------------------------------------------------------|
B----------------------------------------------------------------------------------|
G----------------------------------------------------------------------------------|
D-7--9--10--9---5~---5----/--7----7--9--10--9----5~--5----/--7----7--9--10--9--5|
A-5--7--8---7---3~---3----/--5----5--7---8--7----3~--3----/--5----5--7---8--7--3|
E----------------------------------------------------------------------------------|

E--------------------------------------------------------------------------||
B--------------------------------------------------------------------------||
G--------------------------------------------------------------------------|| end
D---2--5---/--7---7--9--10--9----5~~---2-2-2--/--7-7-7--7------7------||
A---0--3---/--5---5--7---8--7----3~~---0-0-0--/--4-4-4--5------5------||
E--------------------------------------------------------------------------||

--------------------------------------------------------------------------------------

Rhythm Guitar during Keyboard Solo
E----------------------------------------------------------------------------------|
B----------------------------------------------------------------------------------|
G------------------/5--5----5------------------------------------------------------|
D--7-----2----7---/2--3----2-h3----5----5------------/-7~----7~----5-------------|
A--5-----0----5--------------------3----3--8--7--5---/-5~----5~----3--3-3-3-3-3-3|
E--------------------------------------------6--5--3-------------------------------|
pm..........

E--------------------------------------------------------------||
B--------------------------------------------------------------||
G--------------------------------------------------------------|| end
D-------------------------3-----------------------------------||
A-3-3-3-3-3-3-3-3-3-3-3---1--1-1-1-1-1-1-1-1-1-1-1-1-1-1-1-1--||
E--------------------------------------------------------------||
......................| pm..............................|

Rhythm Guitar during Guitar Solo
E-------------------------------------------------------------------------------||
B-------------------------------------------------------------------------------||
G----------------------/5--5----------------------------------------------------|| end
D--7-----2---5----7---/2--3---5-----------7-----7----5----5------------------||
A--5-----0---3----5-----------3-----5-----5-----5----3----3-----7------7~~---||
E-------------------------------------3----------------------------5------5~~---||

--------------------------------------------------------------------------------------

=======================
=TABLATURE EXPLANATION=
=======================

A.H. = Artificial Harmonic

pm..| = Palm mute

h = hammer on

p = pull off

/ = slide up

= slide down

~ = Vibrato

b() = Bend

x = Pick Slide

--------|
--------|
---12---| = Tremolo pick
----/---|
----/---|
----/---|

---.---|
--12---| = Staccato
-------|
-------|
-------|

| |
| |
|* *| = repeat from * to *
|* *|
| |