Stop Censorship
 
 

 
 1-9 a b c d e f g h i j k l m n o p q r s t u v w x y z
   Sonata Arctica - Peacemaker Tab    

band: Sonata Arctica
Title: Peacemaker
Tabber: FzVm a.k.a -ScAnDiNaViaN-

-----------------------------------------
Tune down 1/2 step!

E-----------------------------------------------------------------------------------|
B------------------|----------------------------------------------------------------|
G--Keyboard-Intro--|----------------------------------------------------------------|
D-----(5-sec)------|--3---5---7---5---2-2----3---5---7~----2-2--2-2--2-2--2-2--2-|
A------------------|--3---5---7---5---2-2----3---5---7~----2-2--2-2--2-2--2-2--2-|
E---------------------1---3---5---3---0-0----1---3---5~----0-0--0-0--0-0--0-0--0-|
pm...| pm.....................

E-----------------------------------------------------------------------------------|
B-----------------------------------------------------------------------------------|
G-----------------------------------------------------------------------------------|
D-2--2-2--2-2--2-2-----/3---5---7--5-------2-2--2-2--2-2--2-2--2-2--2-2--2-2--/-3-|
A-2--2-2--2-2--2-2-----/3---5---7--5--2-2--2-2--2-2--2-2--2-2--2-2--2-2--2-2--/-3-|
E-0--0-0--0-0--0-0-0-0-/1---3---5--3--0-0--0-0--0-0--0-0--0-0--0-0--0-0--0-0--/-1-|
.....................| pm.....................................|

Verse 1
E----------||-----------------------------------------------------------------------|
B----------||-----------------------------------------------------------------------|
G----------||-------------------------------------------------------------5-------5-|
D5---7~---||--2-2--2-2--2-2--2-2--2-2----2-2--2-2--2-2--2-2--2-2-/-5-5---5---5---5-|
A5---7~---||--2-2--2-2--2-2--2-2--2-2----2-2--2-2--2-2--2-2--2-2-/-5-5---3---5---3-|
E3---5~---||--0-0--0-0--0-0--0-0--0-0----0-0--0-0--0-0--0-0--0-0-/-3-3-------3-----|
pm..................................................|

E--------------------------------------------A.H.-----------------------------------|
B-------------------------------------5-/8-7--8~------------------------------------|
G-/-9-9-9-9---7-7-------------------5-----------------------------------------------|
D-/-9-9-9-9---7-7-----------------5----------------2-2--2-2--2-2--2-2--2-2----2-2--|
A-/-7-7-7-7---5-5-5-5-5-5-5-5--3------------------2-2--2-2--2-2--2-2--2-2----2-2--|
E--------------------------------------------------0-0--0-0--0-0--0-0--0-0----0-0--|
pm..........| pm...............................

E-----------------------------------------------------------------------------------|
B-----------------------------------------------------------------------------------|
G----------------------------5-------5--/-9----------7-7-------------/-9--9--9--9--|
D-2-2--2-2--2-2--2-2-/-5-5---5---5---5--/-9--7-------7-7-------------/-9--9--9--9--|
A-2-2--2-2--2-2--2-2-/-5-5---3---5---3--/-7----10~---5-5-5-5-5-5-5-5-/-7--7--7--7--|
E-0-0--0-0--0-0--0-0-/-3-3-------3--------------------------------------------------|
...................| pm..........|

Chorus (1)
E-----------------------------------------------------------------------------------|
B------------------------------------------------------------------|----------------|
G--5-------7-/-9---5-------7--------5-------7-/-9---5-------7------|----------------|
D--5---5---7-/-9---5---5---7--9----5---5---7-/-9---5---5---7--9--|--2-2--2-2--2-2-|
A--3---5---5-/-7---3---5---5--9----3---5---5-/-7---3---5---5--9--|--2-2--2-2--2-2-|
E------3---------------3------7--------3---5-/-7-------3------7-----0-0--0-0--0-0-|
pm.............
Verse 2
E-----------------------------------------------------------------------------------|
B----------------------------------------|------------------------------------------|
G----------------------------------------|------------------------------------------|
D-2-2--2-2--2-2--2-2--2-2-/-3---5---7~--|--2-2--2-2--2-2--2-2--2-2----2-2--2-2--2-2|
A-2-2--2-2--2-2--2-2--2-2-/-3---5---7~--|--2-2--2-2--2-2--2-2--2-2----2-2--2-2--2-2|
E-0-0--0-0--0-0--0-0--0-0-/-1---3---5~-----0-0--0-0--0-0--0-0--0-0----0-0--0-0--0-0|
........................| pm........................................

E-----------------------------------------------------------------------------------|
B------------------------------------------------------------------------8----------|
G------------------5---5---------5--/--9---------7-7--------------5p4----5---5--4|
D-2-2--2-2-/-5-5---5---5--5-----5--/--9--7------7-7--------------------5-----5--4|
A-2-2--2-2-/-5-5---3---3--5-----3--/--7----10~--5-5-5-5-5-5-5-5--3p2----3---3--2|
E-0-0--0-0-/-3-3----------3---3-----------------------------------------------3--2|
.........| pm pm..........|

E-----------------------------------------------------------------------------------|
B-----------------------------------------------------------------------------------|
G----------------------------------------------------------5---------5--/--9--------|
D--2~---2-2--2-2--2-2--2-2--2-2--2-2--2-2--2-2--2-2--2-2---5----5----5--/--9--7-----|
A--2~---2-2--2-2--2-2--2-2--2-2--2-2--2-2--2-2--2-2--2-2---3----5----3--/--7----10~-|
E--0~---0-0--0-0--0-0--0-0--0-0--0-0--0-0--0-0--0-0--0-0--------3-------------------|
pm................................................|

Guitar Solo 1
E-----------------------------------------------------------------------------------|
B-------------------------|----------|----------|--15b(17)--r15-15~---13p12---------|
G--7-7---------------9---|--Chorus--|----------|---------------------------12------|
D--7-7---------------9---|---(1)----|--2~------|------------------------------12-/-|
A--5-5-5-5-5-5-5-5---7---|----------|--2~------|-----------------------------------|
E---------------------------------------0~------------------------------------------|
pm..........|

E----------------15----14-15----14-15----/19----17----15----------------------------|
B-------------------12-------13-------13-----15----15----15-17b(19)-r17~~-15--8~~--|
G-----------------------------------------------------------------------------------|
D-14b(16)-r14~~---------------------------------------------------------------------|
A-----------------------------------------------------------------------------------|
E-----------------------------------------------------------------------------------|

E-------------------------------------------------------------------------/15h17p15-|
B--12b(13)-r12~---------------------------------------------------------------------|
G--------------------A.H.-----------------------------------11-12-14-12~------------|
D---------------12h14-12~-----------------10-12-14-10-12-14-------------------------|
A--------------------------------10-12-14-------------------------------------------|
E--------------------------12-14----------------------------------------------------|
pm.........................................|

Guitar Solo
E-----------------------------------------------14p12p10----14p12p10----14p12p10----|
B-15------------------------|-----------------|-*////10/////10/////10-|
G----14~--12h14p12-11-------|--Keyboard-Solo--|--------///--------//--------//-|
D--------------------12-----|-----------------|-------------------------------------|
A----------------------12~--|-----------------|-------------------------------------|
E-----------------------------------------------------------------------------------|
*=Press T.Bar slightly before striking the tones and then raise the T.bar

E-14p12p10h14~~-------------17h19h20p19p17------------------------------------------|
B-----------------/17h19h20----------------20p19p1715h17h19p17p15------------------|
G------------------------------------------------------------------17p16p14---------|
D---------------------------------------------------------------------------17p16p14|
A-----------------------------------------------------------------------------------|
E-----------------------------------------------------------------------------------|

E-----------------------------------------------------------------------------------|
B-----------------|-----------------------------------------------------------------|
G-----------------|--5-------------------------------------------------/-9--9--9--7-|
D----------17~~---|--5-------------------------------------------------/-9--9--9--7-|
A-17p15p14--------|--3-3-3-3-3-3-3-3-------------------5-5-5-5-5-5-5-5-/-7--7--7--5-|
E------------------------------------3-3-3-3-3-3-3-3-------------------------------|
pm..............................................|

Chorus (2)
E-----------------------------------------------------------------------------------|
B---------------------------------------------------------------------|-------------|
G--5-----------------------------------------------------------------|*--5-------7-|
D--5----------------------------------------------------9--9--9--9--|*--5---5---7-|
A--3-3-3-3-3-3-3-3---------------------5-5-5-5-5-5-5-5--9--9--9--9--|---3---5---5-|
E-------------------3-3-3-3-3-3-3-3-3-------------------7--7--7--7------3---3---5-|
pm................................................|
x2
E-----------------------------------------------------------------------------------|
B--------------------------------------------------------------|--------------------|
G-/-9----5-------7----------5-------7-/-9----5-------7--------*|--------------------|
D-/-9----5---5---7---9~----5---5---7-/-9----5---5---7---9~--*|--2-2--2-2--2-2--2-2|
A-/-7----3---5---5---9~----3---5---5-/-7----3---5---5---9~---|--2-2--2-2--2-2--2-2|
E-/-7----3---3---5---7~----3---3---5-/-7----3---3---5---7~------0-0--0-0--0-0--0-0|
pm.................
E----------------------------------------------||
B----------------------------------------------||
G----------------------------------------------|| end
D--2-2--2-2--2-2--2-2-/--3--/--5--/--7~~------||
A--2-2--2-2--2-2--2-2-/--3--/--5--/--7~~------||
E--0-0--0-0--0-0--0-0-/--1--/--3--/--5~~------||
....................|

--------------------------------------------------------------------------------------

Rhythm Guitar during Guitar Solo 1
E-----------------------------------------------------------------------------------|
B-----------------------------------------------------------------------------------|
G--9----5---------7----9----5--/--7~----9----5---------7----9----5--/--7------------|
D--9----5----5----7----9----5--/--7~----9----5----5----7----9----5--/--7------------|
A--7----3----5----5----7----3--/--5~----7----3----5----5----7----3--/--5-5-5-5-5-5-5|
E------------3------------------------------------3---------------------------------|
pm..........
E------||
B------||
G------|| end
D------||
A-5-5--||
E------||
....|

Rhythm Guitar during Keyboard Solo & Guitar Solo 2
E-----------------------------------------------------------------------------------|
B-----------------------------------------------------------------------------------|
G--5-----5~-------------7-----7~-/--9---9--7---5-----5~------------7-----7~--------|
D--5-----5~--5-----5~---7-----7~-/--9---9--7---5-----5~--5-----5~--7-----7~--9----|
A--3-3-3-3~--5-----5~---5-5-5-5~-/--7---7--5---3-3-3-3~--5-----5~--5-5-5-5~--9----|
E------------3-3-3-3~-------------------------------------3-3-3-3~------------7-7-7|
pm..| pm..| pm.| pm..| pm..| pm..| pm..

E--------------||
B--------------||
G--------------|| end
D--------------||
A--------------||
E-7-7-7-7-7-7--||
............|

--------------------------------------------------------------------------------------

TABLATURE EXPLANATION

A.H. = Artificial harmonic

<<<< = Volume swell effect

>>>> = Volume decrease effect

pm..| = Palm mute

h = hammer on

p = pull off

/ = slide up

= slide down

~ = Vibrato

b() = Bend

x = Pick slide

--------
--------
---12--- = Tremolo pick
----/---
----/---
----/---

---.---
--12--- = Staccato
-------
-------
-------

| |
| |
|* *| = repeat from * to *
|* *|
| |