Stop Censorship
 
 

 
 1-9 a b c d e f g h i j k l m n o p q r s t u v w x y z
   Sonata Arctica - Silver Tongue Tab    

Tune down 1/2 step!

Intro
e:---------------------------------------------------------------------------|
B:---------------------------------------------------------------------------|
G:---------------------------------------------------------------------------|
D:--9-----------5-----------7-----------7-----------9-----------5-----------7|
A:--9-----------5-----------7-----------7-----------9-----------5-----------7|
E:--7--7-7-7-7--3--3-3-3-3--5--5-5-5-5--5--5-5-5-5--7--7-7-7-7--3--3-3-3-3--5|
pm....... pm....... pm....... pm....... pm....... pm.......




e:---------------------------------------------------------------------------|
B:---------------------------------------------------------------------------|
G:---------------------------------------------------------------------------|
D:-----------8-----------9-----------5-----------7-----------7-----------9---|
A:-----------9-----------9-----------5-----------7-----------7-----------9---|
E:--5-5-5-5--6--6-6-6-6--7--7-7-7-7--3--3-3-3-3--5--5-5-5-5--5--5-5-5-5--7--7|
pm....... pm....... pm....... pm....... pm....... pm....... pm.



Verse
e:-------------------------------------|-------------------------------------|
B:-------------------------------------|-------------------------------------|
G:-------------------------------------|-------------------------------------|
D:--------5-----------7-----------7----|-------------------------------------|
A:--------5-----------7-----------7----|--2----------------------------------|
E:-7-7-7--3--3-3-3-3--5--5-5-5-5--5----|--0--0-0-0-0-0--0-0-0--0--0-0-0-0-0--|
...... pm....... pm....... pm................pm..............




e:---------------------------------------------------------------------------|
B:---------------------------------------------------------------------------|
G:---------------------------------------------------------------------------|
D:---------------------------------------------------------------------------|
A:-------2--2-2-2-2-2--2-2-2--5--5-5-5-5-5--5-5-5--2-------------------------|
E:0-0-0--------------------------------------------0--0-0-0-0-0--0-0-0--0--0-|
.....pm...................pm................... pm................pm.....



*2
e:---------------------------------------|----------------------------|------|
B:---------------------------------------|----------------------------|------|
G:----------------7----------------------|-----------------3---4---6--|--Vers|
D:----------------7----------------------|--5---4---2------3---4---6--|--(*2)|
A:----------------5----5-7-5-------7-----|--5---4---2------1---2---4--|------|
E:0-0-0-0--0-0-0-------------9--7--5~----|--3---2---0-----------------|------|
..............



second ending
e:---|--17---------------------------------------------------------|-------|
B:---|-------/15-17-15-12--17--------------------------------------|-------|
G:e--|--------------------------/14-16-14-12--16-11-12-14-12-11-----|-------|
D:---|-----------------------------------------------------------14--|--5---4|
A:---|---------------------------------------------------------------|--5---4|
E:---|---------------------------------------------------------------|--3---2|




Pre-Chorus 1
e:--------------------|------------------------------------------------------|
B:--------------------|------------------------------------------------------|
G:---------3---4---6--|---------4---------------------------4----------------|
D:---2-----3---4---6--|--2------4------7------5------2------4------7------5--|
A:---2-----1---2---4--|--2------2------7------5------2------2------7------5--|
E:---0----------------|--0-------------5------3------0-------------5------3--|





e:---------------------------------------------------------------------------|
B:---------------------------------------------------------------------------|
G:---------------------------------------------------------------------------|
D:----2-----------2-----------4-----------4-----------5-----------5----------|
A:----2-----------2-----------4-----------4-----------5-----------5----------|
E:----0--0-0-0-0--0--0-0-0-0--2--2-2-2-2--2--2-2-2-2--3--3-3-3-3--3--3-3-3-3-|
pm....... pm....... pm....... pm....... pm....... pm.......



Chorus
e:-------------------------|-------------------------------------------------|
B:-------------------------|-------------------------------------------------|
G:-------------------------|-------------------------------------------------|
D:-7-----------7-----------|--9-----------5-----------7-----------7----------|
A:-7-----------7-----------|--9-----------5-----------7-----------7----------|
E:-5--5-5-5-5--5--5-5-5-5--|--7--7-7-7-7--3--3-3-3-3--5--5-5-5-5--5--5-5-5-5-|
pm....... pm....... pm....... pm....... pm....... pm.......




e:---------------------------------------------------------------------------|
B:---------------------------------------------------------------------------|
G:---------------------------------------------------------------------------|
D:-9-----------5-----------7-----------8-----------9-----------5-----------7-|
A:-9-----------5-----------7-----------9-----------9-----------5-----------7-|
E:-7--7-7-7-7--3--3-3-3-3--5--5-5-5-5--6--6-6-6-6--7--7-7-7-7--3--3-3-3-3--5-|
pm....... pm....... pm....... pm....... pm....... pm....... p



A.H.
e:-----------------------------------------------------|----------------|----|
B:-----------------------------------------------------|----------------|----|
G:-----------------------------------------------------|---Verse--------|---V|
D:----------7-----------9-----------5-----------7------|-----------9----|----|
A:----------7-----------9-----------5-----------7------|----------------|----|
E:-5-5-5-5--5--5-5-5-5--7--7-7-7-7--3--3-3-3-3--5------|----------------|----|
m....... pm....... pm....... pm.......



Chorus
e:-------|---------------------------|----------------|------------|---------|
B:-------|---------------------------|----------------|------------|---------|
G:erse---|----------------3---4---6--|---Pre-Chorus---|---Chorus---|--9----5-|
D:-------|--5---4---2-----3---4---6--|----------------|------------|--9----5-|
A:-------|--5---4---2-----1---2---4--|----------------|------------|--7----3-|
E:-------|--3---2---0----------------|----------------|------------|---------|




2 Keyboard
e:---------------------------------------------------------------|-----------|
B:---------------------------------------------------------------|-----------|
G:---7--------9----5----7----8----9----5----7----9----5----7-----|-----------|
D:---7--------9----5----7----9----9----5----7----9----5----7-----|--9--------|
A:---5--------7----3----5----6----7----3----5----7----3----5-----|--9--------|
E:---------------------------------------------------------------|--7--7-7-7-|
pm......



solo
e:---------------------------------------------------------------------------|
B:---------------------------------------------------------------------------|
G:---------------------------------------------------------------------------|
D:---9-----------9-----------7-----------9-----------9-----------9-----------|
A:---9-----------9-----------7-----------9-----------9-----------9-----------|
E:7--7--7-7-7-7--7--7-7-7-7--5--5-5-5-5--7--7-7-7-7--7--7-7-7-7--7--7-7-7-7--|
. pm....... pm....... pm....... pm....... pm....... pm.......




e:---------------------------------------------------------------------------|
B:---------------------------------------------------------------------------|
G:------------------------------------7-----------7-----------9-----------9--|
D:4-----------5-----------5-----------7-----------7-----------9-----------9--|
A:4-----------5-----------5-----------5--5-5-5-5--5--5-5-5-5--7--7-7-7-7--7--|
E:2--2-2-2-2--3--3-3-3-3--3--3-3-3-3-----------------------------------------|
pm....... pm....... pm....... pm....... pm....... pm....... pm



|pre-dip wit trem
e:----------------------------------|-----------------------|----------------|
B:----------------------------------|----------------------------------------|
G:---------6-----------2------------|--9b(11)-9b(11)--7-9-7------------------|
D:---------7-----------2------------|------------------------/9----/7--------|
A:7-7-7-7--4--4-4-4-4--0--0-0-0-0---|------------------------------------/9--|
E:----------------------------------|----------------------------------------|
....... pm....... pm.......



olo | hit,dip and release with tremolo | pre dip with trem| with whamm
e:-----|-------------------------------------|-------------------|-----------|
B:----------------------------------------------/15---/14---/15----17b(19)r~~|
G:----------------7w(6-7)--9w(7-9)--11w(9-11)--------------------------------|
D:--/9---9w(8-9)-------------------------------------------------------------|
A:--/9-----------------------------------------------------------------------|
E:--/7-----------------------------------------------------------------------|




y | A.H. T
e:--|---------------------------------------------------12t14p12p10p7--------|
B:~---------------7---------------------------------------------------87----|
G:----------7p6-----9p7p6----------7-9--7--7-11-9--7----------------------9p7|
D:----9p7h9-----7---------7h9--7-9-9-9--9------------------------------------|
A:---------------------------------------------------------------------------|
E:---------------------------------------------------------------------------|




Harmony
e:------------------14h18p14--------------------14h18p14-----------|---------|
B:---------------14----------14--------------14----------14--------|--12p0-10|
G:6----------15----------------15--------15----------------15-----|---------|
D:---9p7---16----------------------16--16----------------------16--|---------|
A:-----------------------------------------------------------------|---------|
E:-----------------------------------------------------------------|---------|




solo
e:---------------------------------------------------------------------------|
B:p0-12p0----------10h12-12--------------------------------------------------|
G:--------11h12h14------------11-------11-------11-----------------------11-1|
D:-------------------------------12h14----12h14----14p12p11--------12h14-----|
A:----------------------------------------------------------14p12------------|
E:---------------------------------------------------------------------------|





e:---------------------------------------------------------------------------|
B:---------------------------------------------------------------------------|
G:4h16p14p1211--------------------------------------------------------------|
D:--------------14-12-14-12-11--12p0-11p0-12p0-11h12p11----------------------|
A:------------------------------------------------------14-12--------------14|
E:------------------------------------------------------------15-14--12h15---|




T
e:----------12h14t19p14p12---------------------------------------------------|
B:-------12----------------12--------15p0-14p0-17p0-15p0-14p0-15p0--14p0-15p0|
G:----12----------------------12---------------------------------------------|
D:-14----------------------------14------------------------------------------|
A:---------------------------------------------------------------------------|
E:---------------------------------------------------------------------------|





e:-------------------------------------------------------------|-------------|
B:-17p0-19p0-17p0-15p0--14h15p14-12----------------------------|-------------|
G:----------------------------------14-1211-------------------|-------------|
D:-------------------------------------------9h10p9------------|--2----------|
A:-------------------------------------------------12-10-9-10--|--7----------|
E:-------------------------------------------------------------|--0--0-0-0-0-|
pm.......




e:---------------------------------------------------------------------------|
B:---------------------------------------------------------------------------|
G:---------------------------------------------------------------------------|
D:-2-----------4-----------4-----------5-----------5-----------7-----------7-|
A:-2-----------4-----------4-----------5-----------5-----------7-----------7-|
E:-0--0-0-0-0--2--2-2-2-2--2--2-2-2-2--3--3-3-3-3--3--3-3-3-3--5--5-5-5-5--5-|
pm....... pm....... pm....... pm....... pm....... pm....... p



Chorus
e:----------|----------------------------------------------------------------|
B:----------|----------------------------------------------------------------|
G:----------|----------------------------------------------------------------|
D:----------|--9-----------5-----------7-----------7-----------9-----------5-|
A:----------|--9-----------5-----------7-----------7-----------9-----------5-|
E:-5-5-5-5--|--7--7-7-7-7--3--3-3-3-3--5--5-5-5-5--5--5-5-5-5--7--7-7-7-7--3-|
m....... pm....... pm....... pm....... pm....... pm....... p



*3
e:----------------------------------|----------------------------------------|
B:----------------------------------|----------------------------------------|
G:----------------------------------|----------------------------------------|
D:----------7-----------8-----------|--9-----------5-----------7-----------7-|
A:----------7-----------9-----------|--9-----------5-----------7-----------7-|
E:-3-3-3-3--5--5-5-5-5--6--6-6-6-6--|--7--7-7-7-7--3--3-3-3-3--5--5-5-5-5--5-|
m....... pm....... pm....... pm....... pm....... pm....... p




e:---------------------------------------------------------------------------|
B:---------------------------------------------------------------------------|
G:---------------------------------------------------------------------------|
D:----------9-----------5-----------7-----------------------8----------------|
A:----------9-----------5-----------7-----------------------9----------------|
E:-5-5-5-5--7--7-7-7-7--3--3-3-3-3--5--5-5-5-5-5-5-5-5-5-5--6--6-6-6-6-6-6-6-|
m....... pm....... pm....... pm................... pm..............



Outro
e:-------|-------------------------------------------------------------------|
B:-------|-------------------------------------------------------------------|
G:-------|-------------------------------------------------------------------|
D:-------|--------9---------9---------9---------7---------9---------9--------|
A:-------|--------9---------9---------9---------7---------9---------9--------|
E:6-6-6--|--7-7-7-7---7-7-7-7---7-7-7-7---5-5-5-5---7-7-7-7---7-7-7-7--7-7-7-|
.....




e:---------------------------------------------------------------------------|
B:---------------------------------------------------------------------------|
G:----------------------------------------7---------7---------9---------9----|
D:9---------4---------5---------5---------7---------7---------9---------9----|
A:9---------4---------5---------5---5-5-5-5---5-5-5-5---7-7-7-7---7-7-7-7----|
E:7---2-2-2-2---3-3-3-3---3-3-3-3--------------------------------------------|





e:---------------------------------------|-----|
B:7-8-7---7---------------7--------------|-----|
G:------9---9-7-9-7-6-7-6---9-7-6--------|--End|
D:6-------------------------------9-7-9-|-----|
A:4--------------------------------------|-----|
E:---------------------------------------|-----|