Stop Censorship
 
 

 
 1-9 a b c d e f g h i j k l m n o p q r s t u v w x y z
   Sonata Arctica - Wolf And Raven Tab    

Band: Sonata Arctica
Title:Wolf And Raven
Tabbed by : FzVm a.k.a -ScAnDiNaViaN

-----------------------------------------
Tune down 1/2 step!

Intro (Gtr.1) x7
E-----------------------------------------------------------------------------------|
B-----------------------------------------|--------------------------------10h12h13-|
G*--9-7-5---7-5-----------5-7-9-7-5------*|-/-9-7------7-----------------9----------|
D*--------9-----9-7-6-7-9-----------9-7--*|-------10-9---10-9-76/7-9-10------------|
A-----------------------------------------|-----------------------------------------|
E-----------------------------------------------------------------------------------|

x6 Two Guitars:
E-10-----12-10-8----10-8---------------8-10-12-10-8-----------/-15-13-12----13-12---|
B-----|----------12------12-10-9-10-12--------------12-10---|-/-17-15-13-15-15-13-15|
G-----|*---------------------------------------------------*|------------16-------16|
D-----|*---------------------------------------------------*|-----------------------|
A-----|-----------------------------------------------------|-----------------------|
E-----------------------------------------------------------------------------------|

T Intro (Gtr.2)
E----12-----------------------------8-h12h17~~--------------------------------------|
B-13-13-15-13-12-----------------10-10h13h17~~-----|--------------------------------|
G-14----16-14-13-14-13---------9--9---------------|--2~-------------7~---------/-2~|
D----------------15-14------10-10-----------------|--2~-----3~------7~----7~---/-2~|
A-----------------------12-12---------------------|--0~-----3~------5~----7~---/-0~|
E-----------------------12----------------------------------1~------------5~-------|

(end Intro) Verse 1
E-----------------------------||----------------------------------------------------|
B-----------------------------||----------------------------------------------------|
G-------------7~--------------||*--2------------------------------------------------|
D-----3~------7~------7~~-----||*--2------------------------------------------------|
A-----3~------5~------7~~-----||---0-0-0-0-0-0-0-0-0-0-0-0-0-0-0-0-0-0-0-0-0-0-0-0-0|
E-----1~--------------5~~-----||----------------------------------------------------|
pm..............................................

E-----------------------------------------------------------------------------------|
B-----------------------------------------------------------------------------------|
G--------------------------------------------4-/-5--2----------2--------------------|
D--------------------------------------------5---5--2---4~~---2--------------------|
A-0-0-0-0-0-0-0-0-0-0-0-0-0-0-0-0-0-0-0-0-0--2-/-3--0---5~~---0-0-0-0-0-0-0-0-0-0-0|
E-------------------------------------------------------2~~------------------------|
..........................................| pm..................

B
E-----------------------------------------------------------------------------------|
B--------------------------------------------------------------------------------|--|
G---------------------------------------------------------------4-/-5--2---------|--|
D---------------------------------------------------------------5---5--2----4~--|--|
A-0-0-0-0-0-0-0-0-0-0-0-0-0-0-0-0-0-0-0-0-0-0-0-0-0-0-0-0-0-0---2-/-3--0----5~--|--|
E---------------------------------------------------------------------------2~----0|
.............................................................| pm

ridge (1)
E-----------------------------------------------------------------------------------|
B-----------------------------------------------------------------------------------|
G---------------------------------7~--5-5~-----------------------------------------|
D---------------------------------9~--7-7~---3-----5-----------------------9-9-9-9-|
A-----------------------7-7-7-7---------------3-----5---7-7-7-7/11-11-11-11---------|
E-0-0-0/4-4-4-4h7-7-7-7-----------------------1-----3-------------------------------|
...............................| pm...........................

w/Fill 1A Bridge (2)
E-----------------------------------------------------------------------------------|
B-------------------------------------|-----------|---------------------------------|
G-9-9-9-9~----------------------------|--Verse-2--|--------------------------9-9-9-9|
D------------7~-------3~-------5~~----|-----------|------------------9-9-9-9--------|
A------------7~-------3~-------5~~----|-----------|--7-7-7-7-7-7-7-7----------------|
E------------5~-------1~-------3~~--------------------------------------------------|
......| pm............................|

w/Fill 1B
E-----------------------------------------------------------------------------------|
B-----------------------------------------------------------------------------------|
G--7~--5-5~----------------------------------------------9-9-9-9----2~-------------|
D--9~--7-7~----3------5-------------------------9-9-9-9------------2~-----3~----5~|
A--5~--3-3~----3------5-----7-7-7-7/11-11-11-11--------------------0~-----3~----5~|
E---------------1------3---------------------------------------------------1~----3~|
pm................................|

Chorus
E-----------------------------------------------------------------------------------|
B---|--------------------------------------------------------|--------------|-------|
G---|--------------/-7---5---4~---------------/-7---5---4~---|--------------|--Verse|
D---|---7---5---3--/-7---5---5~---7---5---3---/-7---5---5~---|-------3~~---|-------|
A---|---7---5---3--/-5---3---2~---7---5---3---/-5---3---2~---|--3-2--3~~---|-------|
E-------5---3---1-----------------5---3---1--------------------------1~~-----------|

Guitar & Keyboard Solo
E-----------------------------------------------------------13----------------13-15-|
B----|--------------|----------|-------------------------|-----17-15-13-15-17-------|
G-3--|--Bridge-(2)--|--Chorus--|-------------------------|--------------------------|
D----|--------------|----------|------2------6---7----|--------------------------|
A----|--------------|----------|------2------7---7----|--------------------------|
E---------------------------------5-3-0--7-5-4---5-------------------------------|

E-17~--15-17-18-17-15--------13-15-17-15-13---------15-13-12----------12-13-15-13-12|
B---------------------18-17-----------------17-15------------15-14-15---------------|
G-----------------------------------------------------------------------------------|
D-----------------------------------------------------------------------------------|
A-----------------------------------------------------------------------------------|
E-----------------------------------------------------------------------------------|

E-----------------------------------------------------------------------------------|
B-15-14-11--------------------------------------------------------------------------|
G----------14-12-10----------------10-12-14~~---12-14-15-14-12--------/-14-12-10----|
D-------------------14-12-11-12-14-----------------------------15-14~------------14-|
A-----------------------------------------------------------------------------------|
E-----------------------------------------------------------------------------------|

E-----------------------------------------------------------------------------------|
B----------------------------------------------------------------------------|------|
G-----12-10-9----------9-10-12-10-97-6-----------6-7-9-7-6------------------|------|
D-12----------12-11-12------------------8-7-5-7-8-----------8-7-5------------|--2--|
A-----------------------------------------------------------------8-7-5-7-8--|--0--|
E-----------------------------------------------------------------------------------|

E-----------------------------------------------------------------------------------|
B-----------------------------------------------------------------------------------|
G----------------------------------------/7---------------7-------------------------|
D-2----5---5--------------7------7-------7---7---7h8-----7---7---7h8-----------|
A-0----4---4----7---7---4--7--4-----5---5---5-------5---5---5--------7---7|
E------------------5---5-------5------------------------------------------5---5|
pm pm pm pm pm pm

E-----------------------------------------------------------------------------------|
B-----------------------------------------------------------------------------------|
G--------------------------------------/7---------------10-------9------------------|
D-----5---5--------------7------7-------7---7---7h8----0-7h8---0-7h8------------|
A----4---4----7---7---4--7--4-----5---5---5-------------------------7---7|
E---------------5---5-------5-------------------------------------------5---5|
pm pm pm pm pm

E-----------------------------------------------------------------------------------|
B-----------------------------------------------------------------------------------|
G----------------------------------/7---------------7-------------------------------|
D--5---5-------------7------7-------7---7---7h8-----7---7---7h8---------------5|
A--4---4---7---7---4--7--4-----5---5---5-------5---5---5--------7---7---4|
E------------5---5-------5------------------------------------------5---5-----|
pm pm pm pm pm pm

E-----------------------------------------------------------------------------------|
B----------------------------------------------------------------|------------------|
G------------------------------------------------------------7~--|*--14-12-10----12-|
D--5-------------7------7---8--7--5-----------------------7~--|*-----------14----|
A--4---7---7---4--7--4-----------8-7-5-4--1---------4--5~--|------------------|
E-------5---5-------5--------------------------5-3-1-0----5~---------------------|

x7
E-----------------------------------------------------------------------------------|
B------------------------------------------|----------------------------------------|
G-10----------------10-12-14-12-10--------*|--14-12-------12----------------------14|
D----14-12-11-12-14----------------14-12~-*|--------15-14----15-14-1211/12-14-15---|
A------------------------------------------|----------------------------------------|
E-----------------------------------------------------------------------------------|

w/Fill 3 x6
E-------13-15------17-15-13----15-13----------------13-15-17-15-13------------17-15-|
B-15-17--------|------------17-------17-15-14-15-17----------------17-15---|--------|
G--------------|*---------------------------------------------------------*|--------|
D--------------|*---------------------------------------------------------*|--------|
A--------------|-----------------------------------------------------------|--------|
E-----------------------------------------------------------------------------------|

E-13----15-13----------13-----------------------------------------------------------|
B----17-------17-15-14----17-15-14--------17----------------------------------------|
G----------------------------------15-14----14-12----14-12-------12----------------|
D--------------------------------------------------15-------15-14----15-14-12-14-15-|
A-----------------------------------------------------------------------------------|
E-----------------------------------------------------------------------------------|

E-------------------13-15----17~~---------------------------------------------------|
B----------13-15-17--------|--------------------------------------------------------|
G-12-14-15-----------------|--7~------------------------7~--------------------------|
D--------------------------|--7~------10---10--5--------7~----10---10--5------------|
A--------------------------|--5~------7--/-8---2--5----5~----7--/--8--2--5--------|
E-------------------------------------------------3----------------------3---5-5-5|
pm....

E-----------------------------------------------------------------------------------|
B----------------------Gtr.2:-3b(5)--r3-3~-----------------------------Gtr.2:--3--1|
G-----------------------------7~-----------------------------------------------4--2|
D-------------------7-7-7-7---7~-----------------------------------------------7~---|
A---4-4-4-4/7-7-7-7-----------5~-------------------------------------7-7-7-7---7~---|
E-5------------------------------------------0-0-0-0-4-4-4-4/7-7-7-7-----------5~---|
..........................| pm..............................|

w/Fill 2 w/Riff 1
E-----------------------------------------------------------------------------------|
B~-----------------------------------------------------|---------------|------------|
G~---------------------------------5~-----5~------4~---|--Chorus-(x2)--|*--9-7-5---7|
D----------------------------------5~-----5~------5~---|---------------|*--------9--|
A----------------------------------3~-----5~------5~---|---------------|------------|
E--1-1-1-1-1-1-1-1-1-1-1-1-1-1-1----------3~------3~--------------------------------|
pm.............................|

x7
E----------------------------------------------------------------------10----12-10-8|
B-----------------------------|-------------------------------10-12-13----|---------|
G-5-----------5-7-9-7-5------*|--9-7------7-----------------9-------------|*--------|
D---9-7-6-7-9-----------9-7--*|------10-9---10-9-76/7-9-10---------------|*--------|
A-----------------------------|-------------------------------------------|---------|
E-----------------------------------------------------------------------------------|

x6
E----10-8---------------8-10-12-10-8------------12----------10h12-------------------|
B-12------12-10-9-10-12--------------12-10---|-----10h12h13-------9h10h12---------9h|
G-------------------------------------------*|----------------------------9h10h12---|
D-------------------------------------------*|--------------------------------------|
A--------------------------------------------|--------------------------------------|
E-----------------------------------------------------------------------------------|

E--------------------------------------------||
Bh10h12--------------------------------------||
G-------9h10h12-10-9-------------------------|| end
D--------------------12-10-9-----------------||
A----------------------------1211/12~~-----||
E--------------------------------------------||

-----------------------------------------------------------------------------------------

Fill 1A Fill 1B
E-----------------------------------------------------------------------------------|
B------------------------------------T-----|----------------------------------------|
G--7---5-5~--5-7-9--5-7-9--9--7~-/-19~~---|--7---5-5~--5-7-9--5-7-9--5-7-9--5~~---|
D------------------------------------------|----------------------------------------|
A------------------------------------------|----------------------------------------|
E-----------------------------------------------------------------------------------|

Fill 2 Fill 3
E-------------------------------------------------------------------||
B--------------------------|----------------------------------------||
G---9~~-----9----7p5h7~~---|----7~-------------------------7~-------|| end
D---10~~----10---9p7h9~~---|----7~-------8~-------5~-------7~-------||
A--------------------------|----5~-------8~-------5~-------5~-------||
E----------------------------------------6~-------3~----------------||

Riff 1
E---------------------------------------------------------------------||
B---------------------------------------------------------------------||
G---2~------------7~-----2~------2~-------------7~-----2~------2-----|| end
D---2~-----3~-----7~-----2~------2~-----3~------7~-----2~------2-----||
A---0~-----3~-----5~-----0~------0~-----3~------5~-----0~------0-----||
E----------1~---------------------------1~----------------------------||

-----------------------------------------------------------------------------------------

TABLATURE EXPLANATION


A.H. = Artificial Harmonic

pm..| = Palm mute

h = hammer on

p = pull off

/ = slide up

= slide down

~ = Vibrato

b() = Bend

x = Pick Slide

--------
--------
---12--- = Tremolo pick
----/---
----/---
----/---

---.---
--12--- = Staccato
-------
-------
-------

| |
| |
|* *| = repeat from * to *
|* *|
| |


Lyrics:

Wolf & Raven

Grant me a wish, my master
Take heed of me
I have been loyal servant
Heartfelt, humble
Gave up - what belongs to me
Gave up my greed
My self-examination
Made me see, to be me
I am now like Judas, done
Ashamed of what I`ve become
Fear for life I wear as a ring
To bask in your favor, I will kill the king
You say I am unbreakable
I cannot die,
I know, but anyway
The words, they maim me
Grant me a wish, my master
Compassion, please
I`d like be a human
...maybe one day
I am now like Judas, done
Ashamed of what I`ve become
Fear of life I wear as a ring
To bask in your favor, I will kill the king
Entreaty: let me go
Master, I hate you so
How can I sleep my nights
When my whole being cries
I tried to be like everyone
Open my soul
But what I had to give
Resulted loathing
Enchanted by the power
Licked by the grace
One beautiful black flower
The end of the human race
I will
with pride now face my faith
King and Queen now lie in state
This ring I wear is a powerful thing
I bask in your favor, I have killed the king
Entreaty: let me go
Master, I hate you so
How can I sleep my nights
When my whole being cries
I had a nightmare
The Wolf eating The Raven
Entrails of life on my plate
And I ate `em..
Interested in what I see
Try that Rorcharch test on me
Have you seen the beauty of the
Enticing beast
Entreaty: let me go
Master, I hate you so
I cannot sleep my nights
When my whole being cries