Stop Censorship
 
 

 
 1-9 a b c d e f g h i j k l m n o p q r s t u v w x y z
   Soulfly - Pain4 Tab    

Song: "Pain"
Artist: Soulfly
Album: Primitive
Transcribed By: Bryan Bramlett (bryanmb87@aol.com)

Tuning: Drop D, 1 1/2 Steps Down, (B,F#,B,E,G#,C#)

INTRO:
|---------------------------------------------------------------------|
|--------------------------------10-----------------------------------|
|---------------------------------X-----------------------------------|
|---------------------------------7---------------------------------6-|
|-------------------------------------------------------------------4-|
|-0-0-00-00-0-00-0-11p0-0-00-0-00---0-0-00-00-0-00-0-11p0-0-00-0-00---|

VERSE:
|---------------------------------------------------------------------|
|------------------------------------------------------------------10-|
|-------------------------------------------------------------------x-|
|---------------------------------6---------------------------------7-|
|---------------------------------4-----------------------------------|
|-0-0-00-00-0-00-0-11p0-0-00-0-00---0-0-00-00-0-00-0-11p0-0-00-0-00---|

CHORUS:
|----------------------------------|
|----------------------------------|
|----------------------------------|
|-7-0-00-0-6-0-00-0-7-0-00-0-7-6-0-|
|-7-0-00-0-6-0-00-0-7-0-00-0-7-6-0-|
|-7-0-00-0-6-0-00-0-7-0-00-0-7-6-0-|

FILL:
|----|
|-10-|
|--X-|
|--7-|
|----|
|----|

INTERLUDE:
|----------------|
|----------6-----|
|------------5---|
|-7--9--3------7-|
|-7--9--3--------|
|-7--9--3--------|

CHORUS 2:
|-------------------------------------|
|-------------------------------------|
|-------------------------------------|
|-7-0-00-0-6-0-00-0-7-0-00-0-7-6-0-00-|
|-7-0-00-0-6-0-00-0-7-0-00-0-7-6-0-00-|
|-7-0-00-0-6-0-00-0-7-0-00-0-7-6-0-00-|