Stop Censorship
 
 

 
 1-9 a b c d e f g h i j k l m n o p q r s t u v w x y z
   Splittrs - Lewy Lewy Tab    

ARTIST :SPLITTRS
SONG :LEWY LEWY
ALBAM :SPLITT
SUBMITTER :URADUAMSS2
E-MAIL :URADUMASS2@AOL.COM

VERSE A
E:-----------------------------------------------}
B:-----------------------------------------------}
G:2-2-2--7-7--9--9-9-7-7--2-2-2--7-7--9--9-9-7-7-}
D:3-3-3--8-8--10-10108-8--3-3-3--8-8--10-10108-8-}X2
A:3-3-3--8-8--10-10108-8--3-3-3--8-8--10-10108-8-}
E:1-1-1--6-6--8--8-8-6-6--1-1-1--6-6--8--8-8-6-6-}

VERSE B
E:-----------------------------------}
B:-----------------------------------}
G:2--2-2-XXX-7--7-X-9--9-9-XXX-7-7-X-}X4
D:3--3-3-XXX-8--8-X-10-1010XXX-8-8-X-}
A:3--3-3-XXX-8--8-X-10-1010XXX-8-8-X-}
E:1--1-1-XXX-6--6-X-8--8-8-XXX-6-6-X-}

ORDER:
VERSEA
VERSEB
VERSEA
VERSEB
VERSEB